  0
SECTION
  2
HEADER
  9
$ACADVER
  1
AC1009
  9
$INSUNITS
  70
13
  9
$EXTMIN
  10
-501.9
  20
-372.5
  9
$EXTMAX
  10
498.1
  20
377.5
  0
ENDSEC
  0
SECTION
  2
TABLES
  0
TABLE
  2
LTYPE
  70
1
  0
LTYPE
  2
CONTINUOUS
  70
64
  3
Solid line
  72
65
  73
0
  40
0
  0
ENDTAB
  0
TABLE
  2
LAYER
  70
6
  0
LAYER
  2
MMIC_Die
  70
0
  62
75
  6
CONTINUOUS
  0
LAYER
  2
MMIC_Label
  70
0
  62
9
  6
CONTINUOUS
  0
LAYER
  2
MMIC_Trace
  70
0
  62
3
  6
CONTINUOUS
  0
LAYER
  2
MMIC_BondPad
  70
0
  62
5
  6
CONTINUOUS
  0
LAYER
  2
MMIC_OverCoat
  70
0
  62
1
  6
CONTINUOUS
  0
LAYER
  2
MMIC_Via
  70
0
  62
208
  6
CONTINUOUS
  0
ENDTAB
  0
ENDSEC
  0
SECTION
  2
BLOCKS
  0
ENDSEC
  0
SECTION
  2
ENTITIES
  0
POLYLINE
  8
MMIC_Die
  70
1
  66
1
  0
VERTEX
  8
MMIC_Die
  10
-501.9
  20
377.5
  0
VERTEX
  8
MMIC_Die
  10
-501.9
  20
-372.5
  0
VERTEX
  8
MMIC_Die
  10
498.1
  20
-372.5
  0
VERTEX
  8
MMIC_Die
  10
498.1
  20
377.5
  0
SEQEND
  0
POLYLINE
  8
MMIC_Label
  70
1
  66
1
  0
VERTEX
  8
MMIC_Label
  10
263.69
  20
258.5
  0
VERTEX
  8
MMIC_Label
  10
263.69
  20
291.5
  0
VERTEX
  8
MMIC_Label
  10
280.19
  20
291.5
  0
VERTEX
  8
MMIC_Label
  10
284.15
  20
290.84
  0
VERTEX
  8
MMIC_Label
  10
286.13
  20
289.85
  0
VERTEX
  8
MMIC_Label
  10
287.78
  20
288.86
  0
VERTEX
  8
MMIC_Label
  10
289.76
  20
285.56
  0
VERTEX
  8
MMIC_Label
  10
290.09
  20
283.25
  0
VERTEX
  8
MMIC_Label
  10
289.43
  20
279.95
  0
VERTEX
  8
MMIC_Label
  10
288.44
  20
278.3
  0
VERTEX
  8
MMIC_Label
  10
287.12
  20
276.98
  0
VERTEX
  8
MMIC_Label
  10
285.8
  20
276.32
  0
VERTEX
  8
MMIC_Label
  10
284.15
  20
275.66
  0
VERTEX
  8
MMIC_Label
  10
285.8
  20
275
  0
VERTEX
  8
MMIC_Label
  10
287.45
  20
274.01
  0
VERTEX
  8
MMIC_Label
  10
289.1
  20
272.69
  0
VERTEX
  8
MMIC_Label
  10
291.08
  20
269.39
  0
VERTEX
  8
MMIC_Label
  10
291.08
  20
267.41
  0
VERTEX
  8
MMIC_Label
  10
290.75
  20
265.1
  0
VERTEX
  8
MMIC_Label
  10
290.09
  20
263.12
  0
VERTEX
  8
MMIC_Label
  10
288.77
  20
261.47
  0
VERTEX
  8
MMIC_Label
  10
287.12
  20
260.15
  0
VERTEX
  8
MMIC_Label
  10
285.47
  20
259.16
  0
VERTEX
  8
MMIC_Label
  10
283.49
  20
258.83
  0
VERTEX
  8
MMIC_Label
  10
281.18
  20
258.5
  0
SEQEND
  0
POLYLINE
  8
MMIC_Label
  70
1
  66
1
  0
VERTEX
  8
MMIC_Label
  10
452.11
  20
332.24
  0
VERTEX
  8
MMIC_Label
  10
451.12
  20
334.22
  0
VERTEX
  8
MMIC_Label
  10
449.8
  20
336.2
  0
VERTEX
  8
MMIC_Label
  10
448.15
  20
337.52
  0
VERTEX
  8
MMIC_Label
  10
444.19
  20
339.5
  0
VERTEX
  8
MMIC_Label
  10
437.26
  20
339.5
  0
VERTEX
  8
MMIC_Label
  10
434.95
  20
339.17
  0
VERTEX
  8
MMIC_Label
  10
432.64
  20
337.85
  0
VERTEX
  8
MMIC_Label
  10
430.66
  20
336.53
  0
VERTEX
  8
MMIC_Label
  10
429.34
  20
334.88
  0
VERTEX
  8
MMIC_Label
  10
428.02
  20
332.57
  0
VERTEX
  8
MMIC_Label
  10
427.03
  20
330.59
  0
VERTEX
  8
MMIC_Label
  10
426.04
  20
327.95
  0
VERTEX
  8
MMIC_Label
  10
425.71
  20
325.64
  0
VERTEX
  8
MMIC_Label
  10
425.71
  20
320.36
  0
VERTEX
  8
MMIC_Label
  10
426.04
  20
318.05
  0
VERTEX
  8
MMIC_Label
  10
427.03
  20
315.41
  0
VERTEX
  8
MMIC_Label
  10
428.02
  20
313.43
  0
VERTEX
  8
MMIC_Label
  10
429.34
  20
311.12
  0
VERTEX
  8
MMIC_Label
  10
430.66
  20
309.47
  0
VERTEX
  8
MMIC_Label
  10
432.64
  20
308.15
  0
VERTEX
  8
MMIC_Label
  10
434.95
  20
306.83
  0
VERTEX
  8
MMIC_Label
  10
437.26
  20
306.5
  0
VERTEX
  8
MMIC_Label
  10
444.19
  20
306.5
  0
VERTEX
  8
MMIC_Label
  10
446.17
  20
307.16
  0
VERTEX
  8
MMIC_Label
  10
448.15
  20
308.48
  0
VERTEX
  8
MMIC_Label
  10
449.8
  20
309.8
  0
VERTEX
  8
MMIC_Label
  10
451.12
  20
311.12
  0
VERTEX
  8
MMIC_Label
  10
452.44
  20
313.1
  0
VERTEX
  8
MMIC_Label
  10
453.1
  20
315.08
  0
VERTEX
  8
MMIC_Label
  10
453.1
  20
317.39
  0
VERTEX
  8
MMIC_Label
  10
452.77
  20
319.7
  0
VERTEX
  8
MMIC_Label
  10
452.11
  20
322.01
  0
VERTEX
  8
MMIC_Label
  10
449.47
  20
325.31
  0
VERTEX
  8
MMIC_Label
  10
445.51
  20
327.29
  0
VERTEX
  8
MMIC_Label
  10
443.2
  20
327.95
  0
VERTEX
  8
MMIC_Label
  10
441.22
  20
327.95
  0
VERTEX
  8
MMIC_Label
  10
438.58
  20
327.62
  0
VERTEX
  8
MMIC_Label
  10
436.27
  20
326.96
  0
VERTEX
  8
MMIC_Label
  10
434.29
  20
325.64
  0
VERTEX
  8
MMIC_Label
  10
432.31
  20
323.99
  0
VERTEX
  8
MMIC_Label
  10
432.31
  20
325.97
  0
VERTEX
  8
MMIC_Label
  10
432.64
  20
327.62
  0
VERTEX
  8
MMIC_Label
  10
433.3
  20
329.6
  0
VERTEX
  8
MMIC_Label
  10
435.28
  20
332.9
  0
VERTEX
  8
MMIC_Label
  10
436.6
  20
333.89
  0
VERTEX
  8
MMIC_Label
  10
438.58
  20
334.88
  0
VERTEX
  8
MMIC_Label
  10
440.56
  20
335.21
  0
VERTEX
  8
MMIC_Label
  10
442.21
  20
334.88
  0
VERTEX
  8
MMIC_Label
  10
444.85
  20
333.56
  0
VERTEX
  8
MMIC_Label
  10
446.17
  20
332.24
  0
SEQEND
  0
POLYLINE
  8
MMIC_Label
  70
1
  66
1
  0
VERTEX
  8
MMIC_Label
  10
-448.9
  20
280.1
  0
VERTEX
  8
MMIC_Label
  10
-463.9
  20
280.1
  0
VERTEX
  8
MMIC_Label
  10
-463.9
  20
275.1
  0
VERTEX
  8
MMIC_Label
  10
-448.9
  20
275.1
  0
SEQEND
  0
POLYLINE
  8
MMIC_Label
  70
1
  66
1
  0
VERTEX
  8
MMIC_Label
  10
-134.136
  20
302.527
  0
VERTEX
  8
MMIC_Label
  10
-134.133
  20
302.526
  0
VERTEX
  8
MMIC_Label
  10
-134.129
  20
302.525
  0
VERTEX
  8
MMIC_Label
  10
-134.126
  20
302.523
  0
VERTEX
  8
MMIC_Label
  10
-134.122
  20
302.522
  0
VERTEX
  8
MMIC_Label
  10
-134.118
  20
302.519
  0
VERTEX
  8
MMIC_Label
  10
-134.116
  20
302.516
  0
VERTEX
  8
MMIC_Label
  10
-134.113
  20
302.514
  0
VERTEX
  8
MMIC_Label
  10
-134.11
  20
302.51
  0
VERTEX
  8
MMIC_Label
  10
-134.109
  20
302.506
  0
VERTEX
  8
MMIC_Label
  10
-134.107
  20
302.503
  0
VERTEX
  8
MMIC_Label
  10
-134.106
  20
302.499
  0
VERTEX
  8
MMIC_Label
  10
-134.105
  20
302.496
  0
VERTEX
  8
MMIC_Label
  10
-134.104
  20
302.492
  0
VERTEX
  8
MMIC_Label
  10
-134.104
  20
302.484
  0
VERTEX
  8
MMIC_Label
  10
-134.103
  20
302.48
  0
VERTEX
  8
MMIC_Label
  10
-134.102
  20
302.477
  0
VERTEX
  8
MMIC_Label
  10
-134.101
  20
302.473
  0
VERTEX
  8
MMIC_Label
  10
-134.099
  20
302.47
  0
VERTEX
  8
MMIC_Label
  10
-134.098
  20
302.466
  0
VERTEX
  8
MMIC_Label
  10
-134.095
  20
302.462
  0
VERTEX
  8
MMIC_Label
  10
-134.092
  20
302.46
  0
VERTEX
  8
MMIC_Label
  10
-134.09
  20
302.457
  0
VERTEX
  8
MMIC_Label
  10
-134.086
  20
302.454
  0
VERTEX
  8
MMIC_Label
  10
-134.082
  20
302.453
  0
VERTEX
  8
MMIC_Label
  10
-134.079
  20
302.451
  0
VERTEX
  8
MMIC_Label
  10
-134.075
  20
302.45
  0
VERTEX
  8
MMIC_Label
  10
-134.072
  20
302.449
  0
VERTEX
  8
MMIC_Label
  10
-134.068
  20
302.448
  0
VERTEX
  8
MMIC_Label
  10
-134.06
  20
302.448
  0
VERTEX
  8
MMIC_Label
  10
-134.056
  20
302.447
  0
VERTEX
  8
MMIC_Label
  10
-134.053
  20
302.446
  0
VERTEX
  8
MMIC_Label
  10
-134.049
  20
302.445
  0
VERTEX
  8
MMIC_Label
  10
-134.046
  20
302.443
  0
VERTEX
  8
MMIC_Label
  10
-134.042
  20
302.442
  0
VERTEX
  8
MMIC_Label
  10
-134.038
  20
302.439
  0
VERTEX
  8
MMIC_Label
  10
-134.036
  20
302.436
  0
VERTEX
  8
MMIC_Label
  10
-134.033
  20
302.434
  0
VERTEX
  8
MMIC_Label
  10
-134.03
  20
302.43
  0
VERTEX
  8
MMIC_Label
  10
-134.029
  20
302.426
  0
VERTEX
  8
MMIC_Label
  10
-134.027
  20
302.423
  0
VERTEX
  8
MMIC_Label
  10
-134.026
  20
302.419
  0
VERTEX
  8
MMIC_Label
  10
-134.025
  20
302.416
  0
VERTEX
  8
MMIC_Label
  10
-134.024
  20
302.412
  0
VERTEX
  8
MMIC_Label
  10
-134.024
  20
302.307
  0
VERTEX
  8
MMIC_Label
  10
-135.065
  20
296.002
  0
VERTEX
  8
MMIC_Label
  10
-135.103
  20
295.826
  0
VERTEX
  8
MMIC_Label
  10
-135.159
  20
295.654
  0
VERTEX
  8
MMIC_Label
  10
-135.232
  20
295.489
  0
VERTEX
  8
MMIC_Label
  10
-135.321
  20
295.331
  0
VERTEX
  8
MMIC_Label
  10
-135.426
  20
295.184
  0
VERTEX
  8
MMIC_Label
  10
-135.545
  20
295.047
  0
VERTEX
  8
MMIC_Label
  10
-135.676
  20
294.923
  0
VERTEX
  8
MMIC_Label
  10
-135.82
  20
294.814
  0
VERTEX
  8
MMIC_Label
  10
-135.974
  20
294.718
  0
VERTEX
  8
MMIC_Label
  10
-136.137
  20
294.639
  0
VERTEX
  8
MMIC_Label
  10
-136.306
  20
294.578
  0
VERTEX
  8
MMIC_Label
  10
-136.482
  20
294.532
  0
VERTEX
  8
MMIC_Label
  10
-136.66
  20
294.505
  0
VERTEX
  8
MMIC_Label
  10
-136.841
  20
294.496
  0
VERTEX
  8
MMIC_Label
  10
-156.242
  20
294.496
  0
VERTEX
  8
MMIC_Label
  10
-157.282
  20
294.576
  0
VERTEX
  8
MMIC_Label
  10
-158.006
  20
294.576
  0
VERTEX
  8
MMIC_Label
  10
-159.59
  20
294.906
  0
VERTEX
  8
MMIC_Label
  10
-159.932
  20
294.977
  0
VERTEX
  8
MMIC_Label
  10
-160.976
  20
295.218
  0
VERTEX
  8
MMIC_Label
  10
-162.422
  20
295.701
  0
VERTEX
  8
MMIC_Label
  10
-164.51
  20
296.746
  0
VERTEX
  8
MMIC_Label
  10
-166.28
  20
298.193
  0
VERTEX
  8
MMIC_Label
  10
-166.924
  20
298.998
  0
VERTEX
  8
MMIC_Label
  10
-167.726
  20
300.042
  0
VERTEX
  8
MMIC_Label
  10
-168.532
  20
301.571
  0
VERTEX
  8
MMIC_Label
  10
-168.855
  20
302.862
  0
VERTEX
  8
MMIC_Label
  10
-168.936
  20
303.666
  0
VERTEX
  8
MMIC_Label
  10
-169.096
  20
304.707
  0
VERTEX
  8
MMIC_Label
  10
-169.096
  20
305.916
  0
VERTEX
  8
MMIC_Label
  10
-168.935
  20
307.359
  0
VERTEX
  8
MMIC_Label
  10
-168.695
  20
308.645
  0
VERTEX
  8
MMIC_Label
  10
-168.372
  20
309.69
  0
VERTEX
  8
MMIC_Label
  10
-167.89
  20
310.815
  0
VERTEX
  8
MMIC_Label
  10
-167.49
  20
311.619
  0
VERTEX
  8
MMIC_Label
  10
-166.766
  20
312.824
  0
VERTEX
  8
MMIC_Label
  10
-165.643
  20
314.27
  0
VERTEX
  8
MMIC_Label
  10
-164.438
  20
315.475
  0
VERTEX
  8
MMIC_Label
  10
-162.832
  20
316.678
  0
VERTEX
  8
MMIC_Label
  10
-161.309
  20
317.641
  0
VERTEX
  8
MMIC_Label
  10
-159.783
  20
318.523
  0
VERTEX
  8
MMIC_Label
  10
-159.59
  20
318.593
  0
VERTEX
  8
MMIC_Label
  10
-157.777
  20
319.246
  0
VERTEX
  8
MMIC_Label
  10
-155.853
  20
319.727
  0
VERTEX
  8
MMIC_Label
  10
-154.167
  20
320.128
  0
VERTEX
  8
MMIC_Label
  10
-152.402
  20
320.208
  0
VERTEX
  8
MMIC_Label
  10
-149.281
  20
320.288
  0
VERTEX
  8
MMIC_Label
  10
-124.639
  20
320.366
  0
VERTEX
  8
MMIC_Label
  10
-124.457
  20
320.375
  0
VERTEX
  8
MMIC_Label
  10
-124.276
  20
320.404
  0
VERTEX
  8
MMIC_Label
  10
-124.099
  20
320.45
  0
VERTEX
  8
MMIC_Label
  10
-123.928
  20
320.514
  0
VERTEX
  8
MMIC_Label
  10
-123.764
  20
320.596
  0
VERTEX
  8
MMIC_Label
  10
-123.609
  20
320.694
  0
VERTEX
  8
MMIC_Label
  10
-123.465
  20
320.806
  0
VERTEX
  8
MMIC_Label
  10
-123.333
  20
320.933
  0
VERTEX
  8
MMIC_Label
  10
-114.339
  20
330.503
  0
VERTEX
  8
MMIC_Label
  10
-114.226
  20
330.636
  0
VERTEX
  8
MMIC_Label
  10
-114.126
  20
330.779
  0
VERTEX
  8
MMIC_Label
  10
-114.042
  20
330.931
  0
VERTEX
  8
MMIC_Label
  10
-113.971
  20
331.09
  0
VERTEX
  8
MMIC_Label
  10
-113.916
  20
331.256
  0
VERTEX
  8
MMIC_Label
  10
-113.878
  20
331.426
  0
VERTEX
  8
MMIC_Label
  10
-113.857
  20
331.599
  0
VERTEX
  8
MMIC_Label
  10
-113.851
  20
331.774
  0
VERTEX
  8
MMIC_Label
  10
-113.864
  20
331.947
  0
VERTEX
  8
MMIC_Label
  10
-113.893
  20
332.119
  0
VERTEX
  8
MMIC_Label
  10
-113.938
  20
332.287
  0
VERTEX
  8
MMIC_Label
  10
-113.999
  20
332.45
  0
VERTEX
  8
MMIC_Label
  10
-114.076
  20
332.607
  0
VERTEX
  8
MMIC_Label
  10
-114.168
  20
332.755
  0
VERTEX
  8
MMIC_Label
  10
-114.273
  20
332.894
  0
VERTEX
  8
MMIC_Label
  10
-114.392
  20
333.022
  0
VERTEX
  8
MMIC_Label
  10
-114.522
  20
333.138
  0
VERTEX
  8
MMIC_Label
  10
-114.663
  20
333.24
  0
VERTEX
  8
MMIC_Label
  10
-114.813
  20
333.329
  0
VERTEX
  8
MMIC_Label
  10
-114.971
  20
333.402
  0
VERTEX
  8
MMIC_Label
  10
-115.135
  20
333.461
  0
VERTEX
  8
MMIC_Label
  10
-115.305
  20
333.502
  0
VERTEX
  8
MMIC_Label
  10
-115.477
  20
333.527
  0
VERTEX
  8
MMIC_Label
  10
-115.651
  20
333.536
  0
VERTEX
  8
MMIC_Label
  10
-151.918
  20
333.536
  0
VERTEX
  8
MMIC_Label
  10
-152.954
  20
333.456
  0
VERTEX
  8
MMIC_Label
  10
-154.474
  20
333.296
  0
VERTEX
  8
MMIC_Label
  10
-156.071
  20
333.057
  0
VERTEX
  8
MMIC_Label
  10
-157.11
  20
332.897
  0
VERTEX
  8
MMIC_Label
  10
-159.59
  20
332.36
  0
VERTEX
  8
MMIC_Label
  10
-160.065
  20
332.258
  0
VERTEX
  8
MMIC_Label
  10
-162.942
  20
331.38
  0
VERTEX
  8
MMIC_Label
  10
-165.658
  20
330.341
  0
VERTEX
  8
MMIC_Label
  10
-168.296
  20
329.222
  0
VERTEX
  8
MMIC_Label
  10
-170.771
  20
327.863
  0
VERTEX
  8
MMIC_Label
  10
-173.007
  20
326.426
  0
VERTEX
  8
MMIC_Label
  10
-175.085
  20
324.829
  0
VERTEX
  8
MMIC_Label
  10
-177.08
  20
322.993
  0
VERTEX
  8
MMIC_Label
  10
-178.597
  20
321.237
  0
VERTEX
  8
MMIC_Label
  10
-180.035
  20
319.478
  0
VERTEX
  8
MMIC_Label
  10
-181.314
  20
317.563
  0
VERTEX
  8
MMIC_Label
  10
-182.43
  20
315.646
  0
VERTEX
  8
MMIC_Label
  10
-183.309
  20
313.65
  0
VERTEX
  8
MMIC_Label
  10
-184.026
  20
311.815
  0
VERTEX
  8
MMIC_Label
  10
-184.505
  20
309.821
  0
VERTEX
  8
MMIC_Label
  10
-184.904
  20
307.587
  0
VERTEX
  8
MMIC_Label
  10
-184.904
  20
306.231
  0
VERTEX
  8
MMIC_Label
  10
-184.984
  20
304.551
  0
VERTEX
  8
MMIC_Label
  10
-184.984
  20
302.874
  0
VERTEX
  8
MMIC_Label
  10
-184.904
  20
301.678
  0
VERTEX
  8
MMIC_Label
  10
-184.505
  20
299.363
  0
VERTEX
  8
MMIC_Label
  10
-184.186
  20
298.088
  0
VERTEX
  8
MMIC_Label
  10
-183.548
  20
296.174
  0
VERTEX
  8
MMIC_Label
  10
-182.91
  20
294.818
  0
VERTEX
  8
MMIC_Label
  10
-181.951
  20
293.061
  0
VERTEX
  8
MMIC_Label
  10
-181.075
  20
291.785
  0
VERTEX
  8
MMIC_Label
  10
-179.717
  20
290.027
  0
VERTEX
  8
MMIC_Label
  10
-178.761
  20
288.992
  0
VERTEX
  8
MMIC_Label
  10
-177.085
  20
287.476
  0
VERTEX
  8
MMIC_Label
  10
-175.328
  20
286.198
  0
VERTEX
  8
MMIC_Label
  10
-173.172
  20
284.921
  0
VERTEX
  8
MMIC_Label
  10
-171.417
  20
283.963
  0
VERTEX
  8
MMIC_Label
  10
-168.782
  20
283.004
  0
VERTEX
  8
MMIC_Label
  10
-166.945
  20
282.446
  0
VERTEX
  8
MMIC_Label
  10
-163.034
  20
281.568
  0
VERTEX
  8
MMIC_Label
  10
-161.758
  20
281.568
  0
VERTEX
  8
MMIC_Label
  10
-160.558
  20
281.488
  0
VERTEX
  8
MMIC_Label
  10
-160.479
  20
281.488
  0
VERTEX
  8
MMIC_Label
  10
-159.59
  20
281.465
  0
VERTEX
  8
MMIC_Label
  10
-157.439
  20
281.408
  0
VERTEX
  8
MMIC_Label
  10
-137.86
  20
281.364
  0
VERTEX
  8
MMIC_Label
  10
-123.324
  20
281.331
  0
VERTEX
  8
MMIC_Label
  10
-123.144
  20
281.34
  0
VERTEX
  8
MMIC_Label
  10
-122.966
  20
281.366
  0
VERTEX
  8
MMIC_Label
  10
-122.791
  20
281.41
  0
VERTEX
  8
MMIC_Label
  10
-122.622
  20
281.472
  0
VERTEX
  8
MMIC_Label
  10
-122.46
  20
281.55
  0
VERTEX
  8
MMIC_Label
  10
-122.306
  20
281.644
  0
VERTEX
  8
MMIC_Label
  10
-122.162
  20
281.753
  0
VERTEX
  8
MMIC_Label
  10
-122.03
  20
281.875
  0
VERTEX
  8
MMIC_Label
  10
-121.912
  20
282.01
  0
VERTEX
  8
MMIC_Label
  10
-121.806
  20
282.156
  0
VERTEX
  8
MMIC_Label
  10
-121.717
  20
282.312
  0
VERTEX
  8
MMIC_Label
  10
-121.643
  20
282.477
  0
VERTEX
  8
MMIC_Label
  10
-121.586
  20
282.647
  0
VERTEX
  8
MMIC_Label
  10
-121.546
  20
282.823
  0
VERTEX
  8
MMIC_Label
  10
-116.514
  20
311.747
  0
VERTEX
  8
MMIC_Label
  10
-116.492
  20
311.92
  0
VERTEX
  8
MMIC_Label
  10
-116.487
  20
312.094
  0
VERTEX
  8
MMIC_Label
  10
-116.499
  20
312.268
  0
VERTEX
  8
MMIC_Label
  10
-116.528
  20
312.44
  0
VERTEX
  8
MMIC_Label
  10
-116.574
  20
312.608
  0
VERTEX
  8
MMIC_Label
  10
-116.635
  20
312.771
  0
VERTEX
  8
MMIC_Label
  10
-116.712
  20
312.928
  0
VERTEX
  8
MMIC_Label
  10
-116.803
  20
313.076
  0
VERTEX
  8
MMIC_Label
  10
-116.909
  20
313.214
  0
VERTEX
  8
MMIC_Label
  10
-117.027
  20
313.342
  0
VERTEX
  8
MMIC_Label
  10
-117.158
  20
313.458
  0
VERTEX
  8
MMIC_Label
  10
-117.298
  20
313.561
  0
VERTEX
  8
MMIC_Label
  10
-117.449
  20
313.649
  0
VERTEX
  8
MMIC_Label
  10
-117.606
  20
313.722
  0
VERTEX
  8
MMIC_Label
  10
-117.771
  20
313.781
  0
VERTEX
  8
MMIC_Label
  10
-117.94
  20
313.822
  0
VERTEX
  8
MMIC_Label
  10
-118.113
  20
313.847
  0
VERTEX
  8
MMIC_Label
  10
-118.286
  20
313.856
  0
VERTEX
  8
MMIC_Label
  10
-149.418
  20
313.856
  0
VERTEX
  8
MMIC_Label
  10
-157.476
  20
305.534
  0
VERTEX
  8
MMIC_Label
  10
-157.59
  20
305.395
  0
VERTEX
  8
MMIC_Label
  10
-157.69
  20
305.245
  0
VERTEX
  8
MMIC_Label
  10
-157.774
  20
305.085
  0
VERTEX
  8
MMIC_Label
  10
-157.842
  20
304.918
  0
VERTEX
  8
MMIC_Label
  10
-157.892
  20
304.745
  0
VERTEX
  8
MMIC_Label
  10
-157.925
  20
304.567
  0
VERTEX
  8
MMIC_Label
  10
-157.94
  20
304.387
  0
VERTEX
  8
MMIC_Label
  10
-157.937
  20
304.207
  0
VERTEX
  8
MMIC_Label
  10
-157.915
  20
304.028
  0
VERTEX
  8
MMIC_Label
  10
-157.877
  20
303.852
  0
VERTEX
  8
MMIC_Label
  10
-157.82
  20
303.681
  0
VERTEX
  8
MMIC_Label
  10
-157.747
  20
303.516
  0
VERTEX
  8
MMIC_Label
  10
-157.658
  20
303.359
  0
VERTEX
  8
MMIC_Label
  10
-157.553
  20
303.212
  0
VERTEX
  8
MMIC_Label
  10
-157.434
  20
303.077
  0
VERTEX
  8
MMIC_Label
  10
-157.302
  20
302.954
  0
VERTEX
  8
MMIC_Label
  10
-157.159
  20
302.844
  0
VERTEX
  8
MMIC_Label
  10
-157.006
  20
302.75
  0
VERTEX
  8
MMIC_Label
  10
-156.843
  20
302.67
  0
VERTEX
  8
MMIC_Label
  10
-156.674
  20
302.609
  0
VERTEX
  8
MMIC_Label
  10
-156.499
  20
302.564
  0
VERTEX
  8
MMIC_Label
  10
-156.321
  20
302.537
  0
VERTEX
  8
MMIC_Label
  10
-156.141
  20
302.528
  0
VERTEX
  8
MMIC_Label
  10
-134.14
  20
302.528
  0
SEQEND
  0
POLYLINE
  8
MMIC_Label
  70
1
  66
1
  0
VERTEX
  8
MMIC_Label
  10
-278.9
  20
310.6
  0
VERTEX
  8
MMIC_Label
  10
-463.9
  20
310.6
  0
VERTEX
  8
MMIC_Label
  10
-463.9
  20
305.6
  0
VERTEX
  8
MMIC_Label
  10
-278.9
  20
305.6
  0
SEQEND
  0
POLYLINE
  8
MMIC_Label
  70
1
  66
1
  0
VERTEX
  8
MMIC_Label
  10
394.89
  20
258.5
  0
VERTEX
  8
MMIC_Label
  10
404.79
  20
275
  0
VERTEX
  8
MMIC_Label
  10
394.89
  20
291.5
  0
VERTEX
  8
MMIC_Label
  10
402.15
  20
291.5
  0
VERTEX
  8
MMIC_Label
  10
408.75
  20
280.61
  0
VERTEX
  8
MMIC_Label
  10
415.35
  20
291.5
  0
VERTEX
  8
MMIC_Label
  10
422.28
  20
291.5
  0
VERTEX
  8
MMIC_Label
  10
412.38
  20
275
  0
VERTEX
  8
MMIC_Label
  10
422.28
  20
258.5
  0
VERTEX
  8
MMIC_Label
  10
415.35
  20
258.5
  0
VERTEX
  8
MMIC_Label
  10
408.75
  20
269.39
  0
VERTEX
  8
MMIC_Label
  10
402.15
  20
258.5
  0
SEQEND
  0
POLYLINE
  8
MMIC_Label
  70
1
  66
1
  0
VERTEX
  8
MMIC_Label
  10
296.49
  20
258.5
  0
VERTEX
  8
MMIC_Label
  10
296.49
  20
291.5
  0
VERTEX
  8
MMIC_Label
  10
315.3
  20
291.5
  0
VERTEX
  8
MMIC_Label
  10
317.28
  20
291.17
  0
VERTEX
  8
MMIC_Label
  10
318.93
  20
290.51
  0
VERTEX
  8
MMIC_Label
  10
320.58
  20
289.52
  0
VERTEX
  8
MMIC_Label
  10
321.9
  20
288.2
  0
VERTEX
  8
MMIC_Label
  10
322.89
  20
286.55
  0
VERTEX
  8
MMIC_Label
  10
323.55
  20
284.9
  0
VERTEX
  8
MMIC_Label
  10
324.21
  20
280.94
  0
VERTEX
  8
MMIC_Label
  10
323.88
  20
278.96
  0
VERTEX
  8
MMIC_Label
  10
323.55
  20
277.31
  0
VERTEX
  8
MMIC_Label
  10
322.89
  20
275.33
  0
VERTEX
  8
MMIC_Label
  10
321.9
  20
274.01
  0
VERTEX
  8
MMIC_Label
  10
320.58
  20
272.69
  0
VERTEX
  8
MMIC_Label
  10
318.93
  20
271.37
  0
VERTEX
  8
MMIC_Label
  10
317.28
  20
270.71
  0
VERTEX
  8
MMIC_Label
  10
303.09
  20
270.71
  0
VERTEX
  8
MMIC_Label
  10
303.09
  20
258.5
  0
SEQEND
  0
POLYLINE
  8
MMIC_Label
  70
1
  66
1
  0
VERTEX
  8
MMIC_Label
  10
452.11
  20
332.24
  0
VERTEX
  8
MMIC_Label
  10
451.12
  20
334.22
  0
VERTEX
  8
MMIC_Label
  10
449.8
  20
336.2
  0
VERTEX
  8
MMIC_Label
  10
448.15
  20
337.52
  0
VERTEX
  8
MMIC_Label
  10
444.19
  20
339.5
  0
VERTEX
  8
MMIC_Label
  10
437.26
  20
339.5
  0
VERTEX
  8
MMIC_Label
  10
434.95
  20
339.17
  0
VERTEX
  8
MMIC_Label
  10
432.64
  20
337.85
  0
VERTEX
  8
MMIC_Label
  10
430.66
  20
336.53
  0
VERTEX
  8
MMIC_Label
  10
429.34
  20
334.88
  0
VERTEX
  8
MMIC_Label
  10
428.02
  20
332.57
  0
VERTEX
  8
MMIC_Label
  10
427.03
  20
330.59
  0
VERTEX
  8
MMIC_Label
  10
426.04
  20
327.95
  0
VERTEX
  8
MMIC_Label
  10
425.71
  20
325.64
  0
VERTEX
  8
MMIC_Label
  10
425.71
  20
320.36
  0
VERTEX
  8
MMIC_Label
  10
426.04
  20
318.05
  0
VERTEX
  8
MMIC_Label
  10
427.03
  20
315.41
  0
VERTEX
  8
MMIC_Label
  10
428.02
  20
313.43
  0
VERTEX
  8
MMIC_Label
  10
429.34
  20
311.12
  0
VERTEX
  8
MMIC_Label
  10
430.66
  20
309.47
  0
VERTEX
  8
MMIC_Label
  10
432.64
  20
308.15
  0
VERTEX
  8
MMIC_Label
  10
434.95
  20
306.83
  0
VERTEX
  8
MMIC_Label
  10
437.26
  20
306.5
  0
VERTEX
  8
MMIC_Label
  10
444.19
  20
306.5
  0
VERTEX
  8
MMIC_Label
  10
446.17
  20
307.16
  0
VERTEX
  8
MMIC_Label
  10
448.15
  20
308.48
  0
VERTEX
  8
MMIC_Label
  10
449.8
  20
309.8
  0
VERTEX
  8
MMIC_Label
  10
451.12
  20
311.12
  0
VERTEX
  8
MMIC_Label
  10
452.44
  20
313.1
  0
VERTEX
  8
MMIC_Label
  10
453.1
  20
315.08
  0
VERTEX
  8
MMIC_Label
  10
453.1
  20
317.39
  0
VERTEX
  8
MMIC_Label
  10
452.77
  20
319.7
  0
VERTEX
  8
MMIC_Label
  10
452.11
  20
322.01
  0
VERTEX
  8
MMIC_Label
  10
449.47
  20
325.31
  0
VERTEX
  8
MMIC_Label
  10
445.51
  20
327.29
  0
VERTEX
  8
MMIC_Label
  10
443.2
  20
327.95
  0
VERTEX
  8
MMIC_Label
  10
441.22
  20
327.95
  0
VERTEX
  8
MMIC_Label
  10
438.58
  20
327.62
  0
VERTEX
  8
MMIC_Label
  10
436.27
  20
326.96
  0
VERTEX
  8
MMIC_Label
  10
434.29
  20
325.64
  0
VERTEX
  8
MMIC_Label
  10
432.31
  20
323.99
  0
VERTEX
  8
MMIC_Label
  10
432.31
  20
325.97
  0
VERTEX
  8
MMIC_Label
  10
432.64
  20
327.62
  0
VERTEX
  8
MMIC_Label
  10
433.3
  20
329.6
  0
VERTEX
  8
MMIC_Label
  10
435.28
  20
332.9
  0
VERTEX
  8
MMIC_Label
  10
436.6
  20
333.89
  0
VERTEX
  8
MMIC_Label
  10
438.58
  20
334.88
  0
VERTEX
  8
MMIC_Label
  10
440.56
  20
335.21
  0
VERTEX
  8
MMIC_Label
  10
442.21
  20
334.88
  0
VERTEX
  8
MMIC_Label
  10
444.85
  20
333.56
  0
VERTEX
  8
MMIC_Label
  10
446.17
  20
332.24
  0
SEQEND
  0
POLYLINE
  8
MMIC_Label
  70
1
  66
1
  0
VERTEX
  8
MMIC_Label
  10
427.69
  20
258.5
  0
VERTEX
  8
MMIC_Label
  10
437.59
  20
275
  0
VERTEX
  8
MMIC_Label
  10
427.69
  20
291.5
  0
VERTEX
  8
MMIC_Label
  10
434.95
  20
291.5
  0
VERTEX
  8
MMIC_Label
  10
441.55
  20
280.61
  0
VERTEX
  8
MMIC_Label
  10
448.15
  20
291.5
  0
VERTEX
  8
MMIC_Label
  10
455.08
  20
291.5
  0
VERTEX
  8
MMIC_Label
  10
445.18
  20
275
  0
VERTEX
  8
MMIC_Label
  10
455.08
  20
258.5
  0
VERTEX
  8
MMIC_Label
  10
448.15
  20
258.5
  0
VERTEX
  8
MMIC_Label
  10
441.55
  20
269.39
  0
VERTEX
  8
MMIC_Label
  10
434.95
  20
258.5
  0
SEQEND
  0
POLYLINE
  8
MMIC_Label
  70
1
  66
1
  0
VERTEX
  8
MMIC_Label
  10
263.69
  20
258.5
  0
VERTEX
  8
MMIC_Label
  10
263.69
  20
291.5
  0
VERTEX
  8
MMIC_Label
  10
280.19
  20
291.5
  0
VERTEX
  8
MMIC_Label
  10
284.15
  20
290.84
  0
VERTEX
  8
MMIC_Label
  10
286.13
  20
289.85
  0
VERTEX
  8
MMIC_Label
  10
287.78
  20
288.86
  0
VERTEX
  8
MMIC_Label
  10
289.76
  20
285.56
  0
VERTEX
  8
MMIC_Label
  10
290.09
  20
283.25
  0
VERTEX
  8
MMIC_Label
  10
289.43
  20
279.95
  0
VERTEX
  8
MMIC_Label
  10
288.44
  20
278.3
  0
VERTEX
  8
MMIC_Label
  10
287.12
  20
276.98
  0
VERTEX
  8
MMIC_Label
  10
285.8
  20
276.32
  0
VERTEX
  8
MMIC_Label
  10
284.15
  20
275.66
  0
VERTEX
  8
MMIC_Label
  10
285.8
  20
275
  0
VERTEX
  8
MMIC_Label
  10
287.45
  20
274.01
  0
VERTEX
  8
MMIC_Label
  10
289.1
  20
272.69
  0
VERTEX
  8
MMIC_Label
  10
291.08
  20
269.39
  0
VERTEX
  8
MMIC_Label
  10
291.08
  20
267.41
  0
VERTEX
  8
MMIC_Label
  10
290.75
  20
265.1
  0
VERTEX
  8
MMIC_Label
  10
290.09
  20
263.12
  0
VERTEX
  8
MMIC_Label
  10
288.77
  20
261.47
  0
VERTEX
  8
MMIC_Label
  10
287.12
  20
260.15
  0
VERTEX
  8
MMIC_Label
  10
285.47
  20
259.16
  0
VERTEX
  8
MMIC_Label
  10
283.49
  20
258.83
  0
VERTEX
  8
MMIC_Label
  10
281.18
  20
258.5
  0
SEQEND
  0
POLYLINE
  8
MMIC_Label
  70
1
  66
1
  0
VERTEX
  8
MMIC_Label
  10
198.09
  20
258.5
  0
VERTEX
  8
MMIC_Label
  10
207.99
  20
291.5
  0
VERTEX
  8
MMIC_Label
  10
215.58
  20
291.5
  0
VERTEX
  8
MMIC_Label
  10
225.48
  20
258.5
  0
VERTEX
  8
MMIC_Label
  10
218.55
  20
258.5
  0
VERTEX
  8
MMIC_Label
  10
216.9
  20
265.1
  0
VERTEX
  8
MMIC_Label
  10
207
  20
265.1
  0
VERTEX
  8
MMIC_Label
  10
205.35
  20
258.5
  0
SEQEND
  0
POLYLINE
  8
MMIC_Label
  70
1
  66
1
  0
VERTEX
  8
MMIC_Label
  10
399.56
  20
306.5
  0
VERTEX
  8
MMIC_Label
  10
399.56
  20
311.45
  0
VERTEX
  8
MMIC_Label
  10
406.82
  20
311.45
  0
VERTEX
  8
MMIC_Label
  10
406.82
  20
328.61
  0
VERTEX
  8
MMIC_Label
  10
397.91
  20
328.61
  0
VERTEX
  8
MMIC_Label
  10
397.91
  20
332.9
  0
VERTEX
  8
MMIC_Label
  10
399.56
  20
332.9
  0
VERTEX
  8
MMIC_Label
  10
401.54
  20
333.23
  0
VERTEX
  8
MMIC_Label
  10
403.52
  20
333.89
  0
VERTEX
  8
MMIC_Label
  10
405.17
  20
334.55
  0
VERTEX
  8
MMIC_Label
  10
406.49
  20
335.87
  0
VERTEX
  8
MMIC_Label
  10
407.48
  20
337.52
  0
VERTEX
  8
MMIC_Label
  10
407.81
  20
339.5
  0
VERTEX
  8
MMIC_Label
  10
413.42
  20
339.5
  0
VERTEX
  8
MMIC_Label
  10
413.42
  20
311.45
  0
VERTEX
  8
MMIC_Label
  10
420.68
  20
311.45
  0
VERTEX
  8
MMIC_Label
  10
420.68
  20
306.5
  0
SEQEND
  0
POLYLINE
  8
MMIC_Label
  70
1
  66
1
  0
VERTEX
  8
MMIC_Label
  10
-278.9
  20
339.5
  0
VERTEX
  8
MMIC_Label
  10
-293.9
  20
339.5
  0
VERTEX
  8
MMIC_Label
  10
-293.9
  20
329.9
  0
VERTEX
  8
MMIC_Label
  10
-298.9
  20
329.9
  0
VERTEX
  8
MMIC_Label
  10
-298.9
  20
339.5
  0
VERTEX
  8
MMIC_Label
  10
-323.9
  20
339.5
  0
VERTEX
  8
MMIC_Label
  10
-323.9
  20
329.9
  0
VERTEX
  8
MMIC_Label
  10
-328.9
  20
329.9
  0
VERTEX
  8
MMIC_Label
  10
-328.9
  20
339.5
  0
VERTEX
  8
MMIC_Label
  10
-353.9
  20
339.5
  0
VERTEX
  8
MMIC_Label
  10
-353.9
  20
329.9
  0
VERTEX
  8
MMIC_Label
  10
-358.9
  20
329.9
  0
VERTEX
  8
MMIC_Label
  10
-358.9
  20
339.5
  0
VERTEX
  8
MMIC_Label
  10
-383.9
  20
339.5
  0
VERTEX
  8
MMIC_Label
  10
-383.9
  20
329.9
  0
VERTEX
  8
MMIC_Label
  10
-388.9
  20
329.9
  0
VERTEX
  8
MMIC_Label
  10
-388.9
  20
339.5
  0
VERTEX
  8
MMIC_Label
  10
-413.9
  20
339.5
  0
VERTEX
  8
MMIC_Label
  10
-413.9
  20
329.9
  0
VERTEX
  8
MMIC_Label
  10
-418.9
  20
329.9
  0
VERTEX
  8
MMIC_Label
  10
-418.9
  20
339.5
  0
VERTEX
  8
MMIC_Label
  10
-433.9
  20
339.5
  0
VERTEX
  8
MMIC_Label
  10
-433.9
  20
275.1
  0
VERTEX
  8
MMIC_Label
  10
-418.9
  20
275.1
  0
VERTEX
  8
MMIC_Label
  10
-418.9
  20
285.5
  0
VERTEX
  8
MMIC_Label
  10
-413.9
  20
285.5
  0
VERTEX
  8
MMIC_Label
  10
-413.9
  20
275.1
  0
VERTEX
  8
MMIC_Label
  10
-388.9
  20
275.1
  0
VERTEX
  8
MMIC_Label
  10
-388.9
  20
285.5
  0
VERTEX
  8
MMIC_Label
  10
-383.9
  20
285.5
  0
VERTEX
  8
MMIC_Label
  10
-383.9
  20
275.1
  0
VERTEX
  8
MMIC_Label
  10
-358.9
  20
275.1
  0
VERTEX
  8
MMIC_Label
  10
-358.9
  20
285.5
  0
VERTEX
  8
MMIC_Label
  10
-353.9
  20
285.5
  0
VERTEX
  8
MMIC_Label
  10
-353.9
  20
275.1
  0
VERTEX
  8
MMIC_Label
  10
-328.9
  20
275.1
  0
VERTEX
  8
MMIC_Label
  10
-328.9
  20
285.5
  0
VERTEX
  8
MMIC_Label
  10
-323.9
  20
285.5
  0
VERTEX
  8
MMIC_Label
  10
-323.9
  20
275.1
  0
VERTEX
  8
MMIC_Label
  10
-298.9
  20
275.1
  0
VERTEX
  8
MMIC_Label
  10
-298.9
  20
285.5
  0
VERTEX
  8
MMIC_Label
  10
-293.9
  20
285.5
  0
VERTEX
  8
MMIC_Label
  10
-293.9
  20
275.1
  0
VERTEX
  8
MMIC_Label
  10
-278.9
  20
275.1
  0
SEQEND
  0
POLYLINE
  8
MMIC_Label
  70
1
  66
1
  0
VERTEX
  8
MMIC_Label
  10
-398.9
  20
275.1
  0
VERTEX
  8
MMIC_Label
  10
-398.9
  20
339.5
  0
VERTEX
  8
MMIC_Label
  10
-403.9
  20
339.5
  0
VERTEX
  8
MMIC_Label
  10
-403.9
  20
275.1
  0
SEQEND
  0
POLYLINE
  8
MMIC_Label
  70
1
  66
1
  0
VERTEX
  8
MMIC_Label
  10
-308.9
  20
275.1
  0
VERTEX
  8
MMIC_Label
  10
-308.9
  20
339.5
  0
VERTEX
  8
MMIC_Label
  10
-313.9
  20
339.5
  0
VERTEX
  8
MMIC_Label
  10
-313.9
  20
275.1
  0
SEQEND
  0
POLYLINE
  8
MMIC_Label
  70
1
  66
1
  0
VERTEX
  8
MMIC_Label
  10
329.29
  20
258.5
  0
VERTEX
  8
MMIC_Label
  10
329.29
  20
291.5
  0
VERTEX
  8
MMIC_Label
  10
356.68
  20
291.5
  0
VERTEX
  8
MMIC_Label
  10
356.68
  20
285.89
  0
VERTEX
  8
MMIC_Label
  10
335.89
  20
285.89
  0
VERTEX
  8
MMIC_Label
  10
335.89
  20
277.64
  0
VERTEX
  8
MMIC_Label
  10
354.04
  20
277.64
  0
VERTEX
  8
MMIC_Label
  10
354.04
  20
272.36
  0
VERTEX
  8
MMIC_Label
  10
335.89
  20
272.36
  0
VERTEX
  8
MMIC_Label
  10
335.89
  20
258.5
  0
SEQEND
  0
POLYLINE
  8
MMIC_Label
  70
1
  66
1
  0
VERTEX
  8
MMIC_Label
  10
362.09
  20
258.5
  0
VERTEX
  8
MMIC_Label
  10
371.99
  20
275
  0
VERTEX
  8
MMIC_Label
  10
362.09
  20
291.5
  0
VERTEX
  8
MMIC_Label
  10
369.35
  20
291.5
  0
VERTEX
  8
MMIC_Label
  10
375.95
  20
280.61
  0
VERTEX
  8
MMIC_Label
  10
382.55
  20
291.5
  0
VERTEX
  8
MMIC_Label
  10
389.48
  20
291.5
  0
VERTEX
  8
MMIC_Label
  10
379.58
  20
275
  0
VERTEX
  8
MMIC_Label
  10
389.48
  20
258.5
  0
VERTEX
  8
MMIC_Label
  10
382.55
  20
258.5
  0
VERTEX
  8
MMIC_Label
  10
375.95
  20
269.39
  0
VERTEX
  8
MMIC_Label
  10
369.35
  20
258.5
  0
SEQEND
  0
POLYLINE
  8
MMIC_Label
  70
1
  66
1
  0
VERTEX
  8
MMIC_Label
  10
394.89
  20
258.5
  0
VERTEX
  8
MMIC_Label
  10
404.79
  20
275
  0
VERTEX
  8
MMIC_Label
  10
394.89
  20
291.5
  0
VERTEX
  8
MMIC_Label
  10
402.15
  20
291.5
  0
VERTEX
  8
MMIC_Label
  10
408.75
  20
280.61
  0
VERTEX
  8
MMIC_Label
  10
415.35
  20
291.5
  0
VERTEX
  8
MMIC_Label
  10
422.28
  20
291.5
  0
VERTEX
  8
MMIC_Label
  10
412.38
  20
275
  0
VERTEX
  8
MMIC_Label
  10
422.28
  20
258.5
  0
VERTEX
  8
MMIC_Label
  10
415.35
  20
258.5
  0
VERTEX
  8
MMIC_Label
  10
408.75
  20
269.39
  0
VERTEX
  8
MMIC_Label
  10
402.15
  20
258.5
  0
SEQEND
  0
POLYLINE
  8
MMIC_Label
  70
1
  66
1
  0
VERTEX
  8
MMIC_Label
  10
-293.9
  20
339.5
  0
VERTEX
  8
MMIC_Label
  10
-278.9
  20
339.5
  0
VERTEX
  8
MMIC_Label
  10
-278.9
  20
334.5
  0
VERTEX
  8
MMIC_Label
  10
-293.9
  20
334.5
  0
SEQEND
  0
POLYLINE
  8
MMIC_Label
  70
1
  66
1
  0
VERTEX
  8
MMIC_Label
  10
-308.9
  20
280.1
  0
VERTEX
  8
MMIC_Label
  10
-323.9
  20
280.1
  0
VERTEX
  8
MMIC_Label
  10
-323.9
  20
275.1
  0
VERTEX
  8
MMIC_Label
  10
-308.9
  20
275.1
  0
SEQEND
  0
POLYLINE
  8
MMIC_Label
  70
1
  66
1
  0
VERTEX
  8
MMIC_Label
  10
-278.9
  20
280.1
  0
VERTEX
  8
MMIC_Label
  10
-293.9
  20
280.1
  0
VERTEX
  8
MMIC_Label
  10
-293.9
  20
275.1
  0
VERTEX
  8
MMIC_Label
  10
-278.9
  20
275.1
  0
SEQEND
  0
POLYLINE
  8
MMIC_Label
  70
1
  66
1
  0
VERTEX
  8
MMIC_Label
  10
-293.9
  20
334.5
  0
VERTEX
  8
MMIC_Label
  10
-278.9
  20
334.5
  0
VERTEX
  8
MMIC_Label
  10
-278.9
  20
339.5
  0
VERTEX
  8
MMIC_Label
  10
-293.9
  20
339.5
  0
SEQEND
  0
POLYLINE
  8
MMIC_Label
  70
1
  66
1
  0
VERTEX
  8
MMIC_Label
  10
362.09
  20
258.5
  0
VERTEX
  8
MMIC_Label
  10
371.99
  20
275
  0
VERTEX
  8
MMIC_Label
  10
362.09
  20
291.5
  0
VERTEX
  8
MMIC_Label
  10
369.35
  20
291.5
  0
VERTEX
  8
MMIC_Label
  10
375.95
  20
280.61
  0
VERTEX
  8
MMIC_Label
  10
382.55
  20
291.5
  0
VERTEX
  8
MMIC_Label
  10
389.48
  20
291.5
  0
VERTEX
  8
MMIC_Label
  10
379.58
  20
275
  0
VERTEX
  8
MMIC_Label
  10
389.48
  20
258.5
  0
VERTEX
  8
MMIC_Label
  10
382.55
  20
258.5
  0
VERTEX
  8
MMIC_Label
  10
375.95
  20
269.39
  0
VERTEX
  8
MMIC_Label
  10
369.35
  20
258.5
  0
SEQEND
  0
POLYLINE
  8
MMIC_Label
  70
1
  66
1
  0
VERTEX
  8
MMIC_Label
  10
258.28
  20
280.94
  0
VERTEX
  8
MMIC_Label
  10
257.62
  20
283.25
  0
VERTEX
  8
MMIC_Label
  10
256.63
  20
285.56
  0
VERTEX
  8
MMIC_Label
  10
255.31
  20
287.21
  0
VERTEX
  8
MMIC_Label
  10
253.66
  20
288.86
  0
VERTEX
  8
MMIC_Label
  10
252.01
  20
290.18
  0
VERTEX
  8
MMIC_Label
  10
249.7
  20
291.17
  0
VERTEX
  8
MMIC_Label
  10
247.72
  20
291.5
  0
VERTEX
  8
MMIC_Label
  10
242.44
  20
291.5
  0
VERTEX
  8
MMIC_Label
  10
240.13
  20
291.17
  0
VERTEX
  8
MMIC_Label
  10
237.82
  20
289.85
  0
VERTEX
  8
MMIC_Label
  10
236.17
  20
288.53
  0
VERTEX
  8
MMIC_Label
  10
234.52
  20
286.88
  0
VERTEX
  8
MMIC_Label
  10
233.2
  20
284.57
  0
VERTEX
  8
MMIC_Label
  10
232.21
  20
282.59
  0
VERTEX
  8
MMIC_Label
  10
231.55
  20
279.95
  0
VERTEX
  8
MMIC_Label
  10
231.22
  20
277.64
  0
VERTEX
  8
MMIC_Label
  10
230.89
  20
275
  0
VERTEX
  8
MMIC_Label
  10
231.22
  20
272.36
  0
VERTEX
  8
MMIC_Label
  10
231.55
  20
270.05
  0
VERTEX
  8
MMIC_Label
  10
232.21
  20
267.41
  0
VERTEX
  8
MMIC_Label
  10
233.2
  20
265.43
  0
VERTEX
  8
MMIC_Label
  10
234.52
  20
263.12
  0
VERTEX
  8
MMIC_Label
  10
236.17
  20
261.47
  0
VERTEX
  8
MMIC_Label
  10
237.82
  20
260.15
  0
VERTEX
  8
MMIC_Label
  10
240.13
  20
258.83
  0
VERTEX
  8
MMIC_Label
  10
242.44
  20
258.5
  0
VERTEX
  8
MMIC_Label
  10
247.06
  20
258.5
  0
VERTEX
  8
MMIC_Label
  10
249.04
  20
258.83
  0
VERTEX
  8
MMIC_Label
  10
252.34
  20
260.81
  0
VERTEX
  8
MMIC_Label
  10
253.33
  20
262.46
  0
VERTEX
  8
MMIC_Label
  10
254.65
  20
258.5
  0
VERTEX
  8
MMIC_Label
  10
258.28
  20
258.5
  0
VERTEX
  8
MMIC_Label
  10
258.28
  20
275
  0
VERTEX
  8
MMIC_Label
  10
245.74
  20
275
  0
VERTEX
  8
MMIC_Label
  10
245.74
  20
270.05
  0
VERTEX
  8
MMIC_Label
  10
251.68
  20
270.05
  0
VERTEX
  8
MMIC_Label
  10
251.35
  20
268.4
  0
VERTEX
  8
MMIC_Label
  10
250.69
  20
266.75
  0
VERTEX
  8
MMIC_Label
  10
249.7
  20
265.43
  0
VERTEX
  8
MMIC_Label
  10
248.38
  20
264.44
  0
VERTEX
  8
MMIC_Label
  10
247.06
  20
263.78
  0
VERTEX
  8
MMIC_Label
  10
245.08
  20
263.45
  0
VERTEX
  8
MMIC_Label
  10
243.43
  20
263.78
  0
VERTEX
  8
MMIC_Label
  10
241.78
  20
264.44
  0
VERTEX
  8
MMIC_Label
  10
240.46
  20
265.43
  0
VERTEX
  8
MMIC_Label
  10
239.14
  20
267.08
  0
VERTEX
  8
MMIC_Label
  10
238.48
  20
268.73
  0
VERTEX
  8
MMIC_Label
  10
237.82
  20
270.71
  0
VERTEX
  8
MMIC_Label
  10
237.49
  20
272.69
  0
VERTEX
  8
MMIC_Label
  10
237.49
  20
277.31
  0
VERTEX
  8
MMIC_Label
  10
237.82
  20
279.29
  0
VERTEX
  8
MMIC_Label
  10
238.48
  20
281.27
  0
VERTEX
  8
MMIC_Label
  10
239.14
  20
282.92
  0
VERTEX
  8
MMIC_Label
  10
240.46
  20
284.57
  0
VERTEX
  8
MMIC_Label
  10
241.78
  20
285.56
  0
VERTEX
  8
MMIC_Label
  10
243.43
  20
286.22
  0
VERTEX
  8
MMIC_Label
  10
245.08
  20
286.55
  0
VERTEX
  8
MMIC_Label
  10
247.06
  20
286.22
  0
VERTEX
  8
MMIC_Label
  10
248.71
  20
285.23
  0
VERTEX
  8
MMIC_Label
  10
250.03
  20
284.24
  0
VERTEX
  8
MMIC_Label
  10
251.02
  20
282.59
  0
VERTEX
  8
MMIC_Label
  10
251.68
  20
280.94
  0
SEQEND
  0
POLYLINE
  8
MMIC_Label
  70
1
  66
1
  0
VERTEX
  8
MMIC_Label
  10
447.16
  20
317.06
  0
VERTEX
  8
MMIC_Label
  10
446.83
  20
315.08
  0
VERTEX
  8
MMIC_Label
  10
446.17
  20
313.76
  0
VERTEX
  8
MMIC_Label
  10
445.18
  20
312.44
  0
VERTEX
  8
MMIC_Label
  10
444.19
  20
311.78
  0
VERTEX
  8
MMIC_Label
  10
442.54
  20
311.12
  0
VERTEX
  8
MMIC_Label
  10
441.22
  20
310.79
  0
VERTEX
  8
MMIC_Label
  10
439.57
  20
310.79
  0
VERTEX
  8
MMIC_Label
  10
437.92
  20
311.12
  0
VERTEX
  8
MMIC_Label
  10
435.28
  20
312.44
  0
VERTEX
  8
MMIC_Label
  10
434.29
  20
313.76
  0
VERTEX
  8
MMIC_Label
  10
433.63
  20
315.08
  0
VERTEX
  8
MMIC_Label
  10
433.3
  20
317.06
  0
VERTEX
  8
MMIC_Label
  10
433.63
  20
318.71
  0
VERTEX
  8
MMIC_Label
  10
434.29
  20
320.03
  0
VERTEX
  8
MMIC_Label
  10
435.28
  20
321.35
  0
VERTEX
  8
MMIC_Label
  10
437.92
  20
322.67
  0
VERTEX
  8
MMIC_Label
  10
439.57
  20
323
  0
VERTEX
  8
MMIC_Label
  10
441.22
  20
323
  0
VERTEX
  8
MMIC_Label
  10
442.54
  20
322.67
  0
VERTEX
  8
MMIC_Label
  10
444.19
  20
322.01
  0
VERTEX
  8
MMIC_Label
  10
445.18
  20
321.35
  0
VERTEX
  8
MMIC_Label
  10
446.17
  20
320.03
  0
VERTEX
  8
MMIC_Label
  10
446.83
  20
318.71
  0
SEQEND
  0
POLYLINE
  8
MMIC_Label
  70
1
  66
1
  0
VERTEX
  8
MMIC_Label
  10
329.29
  20
258.5
  0
VERTEX
  8
MMIC_Label
  10
329.29
  20
291.5
  0
VERTEX
  8
MMIC_Label
  10
356.68
  20
291.5
  0
VERTEX
  8
MMIC_Label
  10
356.68
  20
285.89
  0
VERTEX
  8
MMIC_Label
  10
335.89
  20
285.89
  0
VERTEX
  8
MMIC_Label
  10
335.89
  20
277.64
  0
VERTEX
  8
MMIC_Label
  10
354.04
  20
277.64
  0
VERTEX
  8
MMIC_Label
  10
354.04
  20
272.36
  0
VERTEX
  8
MMIC_Label
  10
335.89
  20
272.36
  0
VERTEX
  8
MMIC_Label
  10
335.89
  20
258.5
  0
SEQEND
  0
POLYLINE
  8
MMIC_Label
  70
1
  66
1
  0
VERTEX
  8
MMIC_Label
  10
332.31
  20
306.5
  0
VERTEX
  8
MMIC_Label
  10
342.21
  20
339.5
  0
VERTEX
  8
MMIC_Label
  10
349.8
  20
339.5
  0
VERTEX
  8
MMIC_Label
  10
359.7
  20
306.5
  0
VERTEX
  8
MMIC_Label
  10
352.77
  20
306.5
  0
VERTEX
  8
MMIC_Label
  10
351.12
  20
313.1
  0
VERTEX
  8
MMIC_Label
  10
341.22
  20
313.1
  0
VERTEX
  8
MMIC_Label
  10
339.57
  20
306.5
  0
SEQEND
  0
POLYLINE
  8
MMIC_Label
  70
1
  66
1
  0
VERTEX
  8
MMIC_Label
  10
303.09
  20
275.99
  0
VERTEX
  8
MMIC_Label
  10
303.09
  20
285.89
  0
VERTEX
  8
MMIC_Label
  10
314.64
  20
285.89
  0
VERTEX
  8
MMIC_Label
  10
315.63
  20
285.23
  0
VERTEX
  8
MMIC_Label
  10
316.62
  20
284.24
  0
VERTEX
  8
MMIC_Label
  10
317.28
  20
282.92
  0
VERTEX
  8
MMIC_Label
  10
317.61
  20
281.6
  0
VERTEX
  8
MMIC_Label
  10
317.61
  20
280.28
  0
VERTEX
  8
MMIC_Label
  10
317.28
  20
278.96
  0
VERTEX
  8
MMIC_Label
  10
316.62
  20
277.97
  0
VERTEX
  8
MMIC_Label
  10
315.63
  20
276.98
  0
VERTEX
  8
MMIC_Label
  10
314.64
  20
276.32
  0
VERTEX
  8
MMIC_Label
  10
312.99
  20
275.99
  0
SEQEND
  0
POLYLINE
  8
MMIC_Label
  70
1
  66
1
  0
VERTEX
  8
MMIC_Label
  10
399.56
  20
306.5
  0
VERTEX
  8
MMIC_Label
  10
399.56
  20
311.45
  0
VERTEX
  8
MMIC_Label
  10
406.82
  20
311.45
  0
VERTEX
  8
MMIC_Label
  10
406.82
  20
328.61
  0
VERTEX
  8
MMIC_Label
  10
397.91
  20
328.61
  0
VERTEX
  8
MMIC_Label
  10
397.91
  20
332.9
  0
VERTEX
  8
MMIC_Label
  10
399.56
  20
332.9
  0
VERTEX
  8
MMIC_Label
  10
401.54
  20
333.23
  0
VERTEX
  8
MMIC_Label
  10
403.52
  20
333.89
  0
VERTEX
  8
MMIC_Label
  10
405.17
  20
334.55
  0
VERTEX
  8
MMIC_Label
  10
406.49
  20
335.87
  0
VERTEX
  8
MMIC_Label
  10
407.48
  20
337.52
  0
VERTEX
  8
MMIC_Label
  10
407.81
  20
339.5
  0
VERTEX
  8
MMIC_Label
  10
413.42
  20
339.5
  0
VERTEX
  8
MMIC_Label
  10
413.42
  20
311.45
  0
VERTEX
  8
MMIC_Label
  10
420.68
  20
311.45
  0
VERTEX
  8
MMIC_Label
  10
420.68
  20
306.5
  0
SEQEND
  0
POLYLINE
  8
MMIC_Label
  70
1
  66
1
  0
VERTEX
  8
MMIC_Label
  10
-213.706
  20
294.512
  0
VERTEX
  8
MMIC_Label
  10
-213.709
  20
294.502
  0
VERTEX
  8
MMIC_Label
  10
-213.713
  20
294.491
  0
VERTEX
  8
MMIC_Label
  10
-213.718
  20
294.481
  0
VERTEX
  8
MMIC_Label
  10
-213.723
  20
294.471
  0
VERTEX
  8
MMIC_Label
  10
-213.738
  20
294.454
  0
VERTEX
  8
MMIC_Label
  10
-213.746
  20
294.446
  0
VERTEX
  8
MMIC_Label
  10
-213.755
  20
294.439
  0
VERTEX
  8
MMIC_Label
  10
-213.765
  20
294.434
  0
VERTEX
  8
MMIC_Label
  10
-213.774
  20
294.429
  0
VERTEX
  8
MMIC_Label
  10
-213.786
  20
294.426
  0
VERTEX
  8
MMIC_Label
  10
-213.796
  20
294.422
  0
VERTEX
  8
MMIC_Label
  10
-213.807
  20
294.421
  0
VERTEX
  8
MMIC_Label
  10
-213.818
  20
294.421
  0
VERTEX
  8
MMIC_Label
  10
-235.413
  20
294.497
  0
VERTEX
  8
MMIC_Label
  10
-235.58
  20
294.49
  0
VERTEX
  8
MMIC_Label
  10
-235.746
  20
294.467
  0
VERTEX
  8
MMIC_Label
  10
-235.91
  20
294.429
  0
VERTEX
  8
MMIC_Label
  10
-236.07
  20
294.375
  0
VERTEX
  8
MMIC_Label
  10
-236.222
  20
294.308
  0
VERTEX
  8
MMIC_Label
  10
-236.37
  20
294.226
  0
VERTEX
  8
MMIC_Label
  10
-236.507
  20
294.13
  0
VERTEX
  8
MMIC_Label
  10
-236.636
  20
294.023
  0
VERTEX
  8
MMIC_Label
  10
-236.754
  20
293.904
  0
VERTEX
  8
MMIC_Label
  10
-242.098
  20
287.99
  0
VERTEX
  8
MMIC_Label
  10
-245.396
  20
284.338
  0
VERTEX
  8
MMIC_Label
  10
-245.51
  20
284.199
  0
VERTEX
  8
MMIC_Label
  10
-245.61
  20
284.049
  0
VERTEX
  8
MMIC_Label
  10
-245.694
  20
283.889
  0
VERTEX
  8
MMIC_Label
  10
-245.762
  20
283.722
  0
VERTEX
  8
MMIC_Label
  10
-245.812
  20
283.549
  0
VERTEX
  8
MMIC_Label
  10
-245.845
  20
283.371
  0
VERTEX
  8
MMIC_Label
  10
-245.86
  20
283.191
  0
VERTEX
  8
MMIC_Label
  10
-245.857
  20
283.011
  0
VERTEX
  8
MMIC_Label
  10
-245.835
  20
282.832
  0
VERTEX
  8
MMIC_Label
  10
-245.797
  20
282.656
  0
VERTEX
  8
MMIC_Label
  10
-245.74
  20
282.485
  0
VERTEX
  8
MMIC_Label
  10
-245.667
  20
282.32
  0
VERTEX
  8
MMIC_Label
  10
-245.578
  20
282.163
  0
VERTEX
  8
MMIC_Label
  10
-245.473
  20
282.016
  0
VERTEX
  8
MMIC_Label
  10
-245.354
  20
281.881
  0
VERTEX
  8
MMIC_Label
  10
-245.222
  20
281.758
  0
VERTEX
  8
MMIC_Label
  10
-245.079
  20
281.648
  0
VERTEX
  8
MMIC_Label
  10
-244.926
  20
281.554
  0
VERTEX
  8
MMIC_Label
  10
-244.763
  20
281.474
  0
VERTEX
  8
MMIC_Label
  10
-244.594
  20
281.413
  0
VERTEX
  8
MMIC_Label
  10
-244.419
  20
281.368
  0
VERTEX
  8
MMIC_Label
  10
-244.241
  20
281.341
  0
VERTEX
  8
MMIC_Label
  10
-244.061
  20
281.332
  0
VERTEX
  8
MMIC_Label
  10
-190.562
  20
281.332
  0
VERTEX
  8
MMIC_Label
  10
-190.387
  20
281.341
  0
VERTEX
  8
MMIC_Label
  10
-190.214
  20
281.366
  0
VERTEX
  8
MMIC_Label
  10
-190.043
  20
281.408
  0
VERTEX
  8
MMIC_Label
  10
-189.878
  20
281.467
  0
VERTEX
  8
MMIC_Label
  10
-189.719
  20
281.542
  0
VERTEX
  8
MMIC_Label
  10
-189.569
  20
281.631
  0
VERTEX
  8
MMIC_Label
  10
-189.427
  20
281.734
  0
VERTEX
  8
MMIC_Label
  10
-189.297
  20
281.852
  0
VERTEX
  8
MMIC_Label
  10
-189.178
  20
281.981
  0
VERTEX
  8
MMIC_Label
  10
-189.073
  20
282.121
  0
VERTEX
  8
MMIC_Label
  10
-188.982
  20
282.27
  0
VERTEX
  8
MMIC_Label
  10
-188.906
  20
282.429
  0
VERTEX
  8
MMIC_Label
  10
-188.845
  20
282.593
  0
VERTEX
  8
MMIC_Label
  10
-188.801
  20
282.762
  0
VERTEX
  8
MMIC_Label
  10
-188.773
  20
282.936
  0
VERTEX
  8
MMIC_Label
  10
-188.762
  20
283.11
  0
VERTEX
  8
MMIC_Label
  10
-188.769
  20
283.286
  0
VERTEX
  8
MMIC_Label
  10
-188.792
  20
283.46
  0
VERTEX
  8
MMIC_Label
  10
-188.833
  20
283.63
  0
VERTEX
  8
MMIC_Label
  10
-188.89
  20
283.796
  0
VERTEX
  8
MMIC_Label
  10
-188.962
  20
283.956
  0
VERTEX
  8
MMIC_Label
  10
-209.97
  20
324.77
  0
VERTEX
  8
MMIC_Label
  10
-210.85
  20
326.53
  0
VERTEX
  8
MMIC_Label
  10
-211.73
  20
328.129
  0
VERTEX
  8
MMIC_Label
  10
-212.446
  20
329.486
  0
VERTEX
  8
MMIC_Label
  10
-213.484
  20
330.842
  0
VERTEX
  8
MMIC_Label
  10
-214.281
  20
331.798
  0
VERTEX
  8
MMIC_Label
  10
-215.075
  20
332.593
  0
VERTEX
  8
MMIC_Label
  10
-215.632
  20
332.99
  0
VERTEX
  8
MMIC_Label
  10
-216.507
  20
333.546
  0
VERTEX
  8
MMIC_Label
  10
-217.218
  20
333.864
  0
VERTEX
  8
MMIC_Label
  10
-218.096
  20
334.102
  0
VERTEX
  8
MMIC_Label
  10
-218.89
  20
334.341
  0
VERTEX
  8
MMIC_Label
  10
-219.845
  20
334.42
  0
VERTEX
  8
MMIC_Label
  10
-221.2
  20
334.5
  0
VERTEX
  8
MMIC_Label
  10
-222.556
  20
334.42
  0
VERTEX
  8
MMIC_Label
  10
-223.59
  20
334.34
  0
VERTEX
  8
MMIC_Label
  10
-224.225
  20
334.182
  0
VERTEX
  8
MMIC_Label
  10
-225.102
  20
333.942
  0
VERTEX
  8
MMIC_Label
  10
-226.534
  20
333.386
  0
VERTEX
  8
MMIC_Label
  10
-227.65
  20
332.67
  0
VERTEX
  8
MMIC_Label
  10
-229.247
  20
331.63
  0
VERTEX
  8
MMIC_Label
  10
-230.682
  20
330.513
  0
VERTEX
  8
MMIC_Label
  10
-231.96
  20
329.317
  0
VERTEX
  8
MMIC_Label
  10
-233.319
  20
327.798
  0
VERTEX
  8
MMIC_Label
  10
-256.076
  20
301.968
  0
VERTEX
  8
MMIC_Label
  10
-262.344
  20
294.854
  0
VERTEX
  8
MMIC_Label
  10
-262.344
  20
294.646
  0
VERTEX
  8
MMIC_Label
  10
-261.309
  20
292.018
  0
VERTEX
  8
MMIC_Label
  10
-260.03
  20
289.382
  0
VERTEX
  8
MMIC_Label
  10
-258.591
  20
286.825
  0
VERTEX
  8
MMIC_Label
  10
-257.234
  20
284.666
  0
VERTEX
  8
MMIC_Label
  10
-257.194
  20
284.611
  0
VERTEX
  8
MMIC_Label
  10
-257.021
  20
284.406
  0
VERTEX
  8
MMIC_Label
  10
-256.829
  20
284.218
  0
VERTEX
  8
MMIC_Label
  10
-256.618
  20
284.05
  0
VERTEX
  8
MMIC_Label
  10
-256.393
  20
283.903
  0
VERTEX
  8
MMIC_Label
  10
-256.154
  20
283.779
  0
VERTEX
  8
MMIC_Label
  10
-255.904
  20
283.68
  0
VERTEX
  8
MMIC_Label
  10
-255.646
  20
283.605
  0
VERTEX
  8
MMIC_Label
  10
-255.382
  20
283.555
  0
VERTEX
  8
MMIC_Label
  10
-255.114
  20
283.533
  0
VERTEX
  8
MMIC_Label
  10
-254.845
  20
283.536
  0
VERTEX
  8
MMIC_Label
  10
-254.578
  20
283.566
  0
VERTEX
  8
MMIC_Label
  10
-254.314
  20
283.622
  0
VERTEX
  8
MMIC_Label
  10
-254.058
  20
283.702
  0
VERTEX
  8
MMIC_Label
  10
-253.81
  20
283.809
  0
VERTEX
  8
MMIC_Label
  10
-253.575
  20
283.938
  0
VERTEX
  8
MMIC_Label
  10
-253.353
  20
284.09
  0
VERTEX
  8
MMIC_Label
  10
-253.147
  20
284.264
  0
VERTEX
  8
MMIC_Label
  10
-252.959
  20
284.457
  0
VERTEX
  8
MMIC_Label
  10
-246.206
  20
292.098
  0
VERTEX
  8
MMIC_Label
  10
-224.9
  20
316.209
  0
VERTEX
  8
MMIC_Label
  10
-224.883
  20
316.226
  0
VERTEX
  8
MMIC_Label
  10
-224.866
  20
316.241
  0
VERTEX
  8
MMIC_Label
  10
-224.847
  20
316.254
  0
VERTEX
  8
MMIC_Label
  10
-224.827
  20
316.266
  0
VERTEX
  8
MMIC_Label
  10
-224.806
  20
316.275
  0
VERTEX
  8
MMIC_Label
  10
-224.784
  20
316.282
  0
VERTEX
  8
MMIC_Label
  10
-224.762
  20
316.288
  0
VERTEX
  8
MMIC_Label
  10
-224.739
  20
316.291
  0
VERTEX
  8
MMIC_Label
  10
-224.716
  20
316.292
  0
VERTEX
  8
MMIC_Label
  10
-224.698
  20
316.291
  0
VERTEX
  8
MMIC_Label
  10
-224.68
  20
316.288
  0
VERTEX
  8
MMIC_Label
  10
-224.663
  20
316.284
  0
VERTEX
  8
MMIC_Label
  10
-224.646
  20
316.278
  0
VERTEX
  8
MMIC_Label
  10
-224.63
  20
316.27
  0
VERTEX
  8
MMIC_Label
  10
-224.614
  20
316.261
  0
VERTEX
  8
MMIC_Label
  10
-224.6
  20
316.25
  0
VERTEX
  8
MMIC_Label
  10
-224.587
  20
316.237
  0
VERTEX
  8
MMIC_Label
  10
-224.575
  20
316.223
  0
VERTEX
  8
MMIC_Label
  10
-224.565
  20
316.209
  0
VERTEX
  8
MMIC_Label
  10
-224.556
  20
316.194
  0
VERTEX
  8
MMIC_Label
  10
-213.704
  20
294.649
  0
VERTEX
  8
MMIC_Label
  10
-213.704
  20
294.534
  0
VERTEX
  8
MMIC_Label
  10
-213.705
  20
294.523
  0
SEQEND
  0
POLYLINE
  8
MMIC_Label
  70
1
  66
1
  0
VERTEX
  8
MMIC_Label
  10
-463.9
  20
339.5
  0
VERTEX
  8
MMIC_Label
  10
-448.9
  20
339.5
  0
VERTEX
  8
MMIC_Label
  10
-448.9
  20
334.5
  0
VERTEX
  8
MMIC_Label
  10
-463.9
  20
334.5
  0
SEQEND
  0
POLYLINE
  8
MMIC_Label
  70
1
  66
1
  0
VERTEX
  8
MMIC_Label
  10
258.28
  20
280.94
  0
VERTEX
  8
MMIC_Label
  10
257.62
  20
283.25
  0
VERTEX
  8
MMIC_Label
  10
256.63
  20
285.56
  0
VERTEX
  8
MMIC_Label
  10
255.31
  20
287.21
  0
VERTEX
  8
MMIC_Label
  10
253.66
  20
288.86
  0
VERTEX
  8
MMIC_Label
  10
252.01
  20
290.18
  0
VERTEX
  8
MMIC_Label
  10
249.7
  20
291.17
  0
VERTEX
  8
MMIC_Label
  10
247.72
  20
291.5
  0
VERTEX
  8
MMIC_Label
  10
242.44
  20
291.5
  0
VERTEX
  8
MMIC_Label
  10
240.13
  20
291.17
  0
VERTEX
  8
MMIC_Label
  10
237.82
  20
289.85
  0
VERTEX
  8
MMIC_Label
  10
236.17
  20
288.53
  0
VERTEX
  8
MMIC_Label
  10
234.52
  20
286.88
  0
VERTEX
  8
MMIC_Label
  10
233.2
  20
284.57
  0
VERTEX
  8
MMIC_Label
  10
232.21
  20
282.59
  0
VERTEX
  8
MMIC_Label
  10
231.55
  20
279.95
  0
VERTEX
  8
MMIC_Label
  10
231.22
  20
277.64
  0
VERTEX
  8
MMIC_Label
  10
230.89
  20
275
  0
VERTEX
  8
MMIC_Label
  10
231.22
  20
272.36
  0
VERTEX
  8
MMIC_Label
  10
231.55
  20
270.05
  0
VERTEX
  8
MMIC_Label
  10
232.21
  20
267.41
  0
VERTEX
  8
MMIC_Label
  10
233.2
  20
265.43
  0
VERTEX
  8
MMIC_Label
  10
234.52
  20
263.12
  0
VERTEX
  8
MMIC_Label
  10
236.17
  20
261.47
  0
VERTEX
  8
MMIC_Label
  10
237.82
  20
260.15
  0
VERTEX
  8
MMIC_Label
  10
240.13
  20
258.83
  0
VERTEX
  8
MMIC_Label
  10
242.44
  20
258.5
  0
VERTEX
  8
MMIC_Label
  10
247.06
  20
258.5
  0
VERTEX
  8
MMIC_Label
  10
249.04
  20
258.83
  0
VERTEX
  8
MMIC_Label
  10
252.34
  20
260.81
  0
VERTEX
  8
MMIC_Label
  10
253.33
  20
262.46
  0
VERTEX
  8
MMIC_Label
  10
254.65
  20
258.5
  0
VERTEX
  8
MMIC_Label
  10
258.28
  20
258.5
  0
VERTEX
  8
MMIC_Label
  10
258.28
  20
275
  0
VERTEX
  8
MMIC_Label
  10
245.74
  20
275
  0
VERTEX
  8
MMIC_Label
  10
245.74
  20
270.05
  0
VERTEX
  8
MMIC_Label
  10
251.68
  20
270.05
  0
VERTEX
  8
MMIC_Label
  10
251.35
  20
268.4
  0
VERTEX
  8
MMIC_Label
  10
250.69
  20
266.75
  0
VERTEX
  8
MMIC_Label
  10
249.7
  20
265.43
  0
VERTEX
  8
MMIC_Label
  10
248.38
  20
264.44
  0
VERTEX
  8
MMIC_Label
  10
247.06
  20
263.78
  0
VERTEX
  8
MMIC_Label
  10
245.08
  20
263.45
  0
VERTEX
  8
MMIC_Label
  10
243.43
  20
263.78
  0
VERTEX
  8
MMIC_Label
  10
241.78
  20
264.44
  0
VERTEX
  8
MMIC_Label
  10
240.46
  20
265.43
  0
VERTEX
  8
MMIC_Label
  10
239.14
  20
267.08
  0
VERTEX
  8
MMIC_Label
  10
238.48
  20
268.73
  0
VERTEX
  8
MMIC_Label
  10
237.82
  20
270.71
  0
VERTEX
  8
MMIC_Label
  10
237.49
  20
272.69
  0
VERTEX
  8
MMIC_Label
  10
237.49
  20
277.31
  0
VERTEX
  8
MMIC_Label
  10
237.82
  20
279.29
  0
VERTEX
  8
MMIC_Label
  10
238.48
  20
281.27
  0
VERTEX
  8
MMIC_Label
  10
239.14
  20
282.92
  0
VERTEX
  8
MMIC_Label
  10
240.46
  20
284.57
  0
VERTEX
  8
MMIC_Label
  10
241.78
  20
285.56
  0
VERTEX
  8
MMIC_Label
  10
243.43
  20
286.22
  0
VERTEX
  8
MMIC_Label
  10
245.08
  20
286.55
  0
VERTEX
  8
MMIC_Label
  10
247.06
  20
286.22
  0
VERTEX
  8
MMIC_Label
  10
248.71
  20
285.23
  0
VERTEX
  8
MMIC_Label
  10
250.03
  20
284.24
  0
VERTEX
  8
MMIC_Label
  10
251.02
  20
282.59
  0
VERTEX
  8
MMIC_Label
  10
251.68
  20
280.94
  0
SEQEND
  0
POLYLINE
  8
MMIC_Label
  70
1
  66
1
  0
VERTEX
  8
MMIC_Label
  10
296.49
  20
258.5
  0
VERTEX
  8
MMIC_Label
  10
296.49
  20
291.5
  0
VERTEX
  8
MMIC_Label
  10
315.3
  20
291.5
  0
VERTEX
  8
MMIC_Label
  10
317.28
  20
291.17
  0
VERTEX
  8
MMIC_Label
  10
318.93
  20
290.51
  0
VERTEX
  8
MMIC_Label
  10
320.58
  20
289.52
  0
VERTEX
  8
MMIC_Label
  10
321.9
  20
288.2
  0
VERTEX
  8
MMIC_Label
  10
322.89
  20
286.55
  0
VERTEX
  8
MMIC_Label
  10
323.55
  20
284.9
  0
VERTEX
  8
MMIC_Label
  10
324.21
  20
280.94
  0
VERTEX
  8
MMIC_Label
  10
323.88
  20
278.96
  0
VERTEX
  8
MMIC_Label
  10
323.55
  20
277.31
  0
VERTEX
  8
MMIC_Label
  10
322.89
  20
275.33
  0
VERTEX
  8
MMIC_Label
  10
321.9
  20
274.01
  0
VERTEX
  8
MMIC_Label
  10
320.58
  20
272.69
  0
VERTEX
  8
MMIC_Label
  10
318.93
  20
271.37
  0
VERTEX
  8
MMIC_Label
  10
317.28
  20
270.71
  0
VERTEX
  8
MMIC_Label
  10
303.09
  20
270.71
  0
VERTEX
  8
MMIC_Label
  10
303.09
  20
258.5
  0
SEQEND
  0
POLYLINE
  8
MMIC_Label
  70
1
  66
1
  0
VERTEX
  8
MMIC_Label
  10
198.09
  20
258.5
  0
VERTEX
  8
MMIC_Label
  10
207.99
  20
291.5
  0
VERTEX
  8
MMIC_Label
  10
215.58
  20
291.5
  0
VERTEX
  8
MMIC_Label
  10
225.48
  20
258.5
  0
VERTEX
  8
MMIC_Label
  10
218.55
  20
258.5
  0
VERTEX
  8
MMIC_Label
  10
216.9
  20
265.1
  0
VERTEX
  8
MMIC_Label
  10
207
  20
265.1
  0
VERTEX
  8
MMIC_Label
  10
205.35
  20
258.5
  0
SEQEND
  0
POLYLINE
  8
MMIC_Label
  70
1
  66
1
  0
VERTEX
  8
MMIC_Label
  10
270.29
  20
264.11
  0
VERTEX
  8
MMIC_Label
  10
270.29
  20
272.69
  0
VERTEX
  8
MMIC_Label
  10
281.51
  20
272.69
  0
VERTEX
  8
MMIC_Label
  10
282.83
  20
272.03
  0
VERTEX
  8
MMIC_Label
  10
283.82
  20
271.04
  0
VERTEX
  8
MMIC_Label
  10
284.48
  20
269.72
  0
VERTEX
  8
MMIC_Label
  10
284.48
  20
267.08
  0
VERTEX
  8
MMIC_Label
  10
283.82
  20
265.76
  0
VERTEX
  8
MMIC_Label
  10
282.83
  20
264.77
  0
VERTEX
  8
MMIC_Label
  10
281.51
  20
264.11
  0
SEQEND
  0
POLYLINE
  8
MMIC_Label
  70
1
  66
1
  0
VERTEX
  8
MMIC_Label
  10
392.5
  20
328.94
  0
VERTEX
  8
MMIC_Label
  10
391.84
  20
331.25
  0
VERTEX
  8
MMIC_Label
  10
390.85
  20
333.56
  0
VERTEX
  8
MMIC_Label
  10
389.53
  20
335.21
  0
VERTEX
  8
MMIC_Label
  10
387.88
  20
336.86
  0
VERTEX
  8
MMIC_Label
  10
386.23
  20
338.18
  0
VERTEX
  8
MMIC_Label
  10
383.92
  20
339.17
  0
VERTEX
  8
MMIC_Label
  10
381.94
  20
339.5
  0
VERTEX
  8
MMIC_Label
  10
376.66
  20
339.5
  0
VERTEX
  8
MMIC_Label
  10
374.35
  20
339.17
  0
VERTEX
  8
MMIC_Label
  10
372.04
  20
337.85
  0
VERTEX
  8
MMIC_Label
  10
370.39
  20
336.53
  0
VERTEX
  8
MMIC_Label
  10
368.74
  20
334.88
  0
VERTEX
  8
MMIC_Label
  10
367.42
  20
332.57
  0
VERTEX
  8
MMIC_Label
  10
366.43
  20
330.59
  0
VERTEX
  8
MMIC_Label
  10
365.77
  20
327.95
  0
VERTEX
  8
MMIC_Label
  10
365.44
  20
325.64
  0
VERTEX
  8
MMIC_Label
  10
365.11
  20
323
  0
VERTEX
  8
MMIC_Label
  10
365.44
  20
320.36
  0
VERTEX
  8
MMIC_Label
  10
365.77
  20
318.05
  0
VERTEX
  8
MMIC_Label
  10
366.43
  20
315.41
  0
VERTEX
  8
MMIC_Label
  10
367.42
  20
313.43
  0
VERTEX
  8
MMIC_Label
  10
368.74
  20
311.12
  0
VERTEX
  8
MMIC_Label
  10
370.39
  20
309.47
  0
VERTEX
  8
MMIC_Label
  10
372.04
  20
308.15
  0
VERTEX
  8
MMIC_Label
  10
374.35
  20
306.83
  0
VERTEX
  8
MMIC_Label
  10
376.66
  20
306.5
  0
VERTEX
  8
MMIC_Label
  10
381.28
  20
306.5
  0
VERTEX
  8
MMIC_Label
  10
383.26
  20
306.83
  0
VERTEX
  8
MMIC_Label
  10
386.56
  20
308.81
  0
VERTEX
  8
MMIC_Label
  10
387.55
  20
310.46
  0
VERTEX
  8
MMIC_Label
  10
388.87
  20
306.5
  0
VERTEX
  8
MMIC_Label
  10
392.5
  20
306.5
  0
VERTEX
  8
MMIC_Label
  10
392.5
  20
323
  0
VERTEX
  8
MMIC_Label
  10
379.96
  20
323
  0
VERTEX
  8
MMIC_Label
  10
379.96
  20
318.05
  0
VERTEX
  8
MMIC_Label
  10
385.9
  20
318.05
  0
VERTEX
  8
MMIC_Label
  10
385.57
  20
316.4
  0
VERTEX
  8
MMIC_Label
  10
384.91
  20
314.75
  0
VERTEX
  8
MMIC_Label
  10
383.92
  20
313.43
  0
VERTEX
  8
MMIC_Label
  10
382.6
  20
312.44
  0
VERTEX
  8
MMIC_Label
  10
381.28
  20
311.78
  0
VERTEX
  8
MMIC_Label
  10
379.3
  20
311.45
  0
VERTEX
  8
MMIC_Label
  10
377.65
  20
311.78
  0
VERTEX
  8
MMIC_Label
  10
376
  20
312.44
  0
VERTEX
  8
MMIC_Label
  10
374.68
  20
313.43
  0
VERTEX
  8
MMIC_Label
  10
373.36
  20
315.08
  0
VERTEX
  8
MMIC_Label
  10
372.7
  20
316.73
  0
VERTEX
  8
MMIC_Label
  10
372.04
  20
318.71
  0
VERTEX
  8
MMIC_Label
  10
371.71
  20
320.69
  0
VERTEX
  8
MMIC_Label
  10
371.71
  20
325.31
  0
VERTEX
  8
MMIC_Label
  10
372.04
  20
327.29
  0
VERTEX
  8
MMIC_Label
  10
372.7
  20
329.27
  0
VERTEX
  8
MMIC_Label
  10
373.36
  20
330.92
  0
VERTEX
  8
MMIC_Label
  10
374.68
  20
332.57
  0
VERTEX
  8
MMIC_Label
  10
376
  20
333.56
  0
VERTEX
  8
MMIC_Label
  10
377.65
  20
334.22
  0
VERTEX
  8
MMIC_Label
  10
379.3
  20
334.55
  0
VERTEX
  8
MMIC_Label
  10
381.28
  20
334.22
  0
VERTEX
  8
MMIC_Label
  10
382.93
  20
333.23
  0
VERTEX
  8
MMIC_Label
  10
384.25
  20
332.24
  0
VERTEX
  8
MMIC_Label
  10
385.24
  20
330.59
  0
VERTEX
  8
MMIC_Label
  10
385.9
  20
328.94
  0
SEQEND
  0
POLYLINE
  8
MMIC_Label
  70
1
  66
1
  0
VERTEX
  8
MMIC_Label
  10
447.16
  20
317.06
  0
VERTEX
  8
MMIC_Label
  10
446.83
  20
315.08
  0
VERTEX
  8
MMIC_Label
  10
446.17
  20
313.76
  0
VERTEX
  8
MMIC_Label
  10
445.18
  20
312.44
  0
VERTEX
  8
MMIC_Label
  10
444.19
  20
311.78
  0
VERTEX
  8
MMIC_Label
  10
442.54
  20
311.12
  0
VERTEX
  8
MMIC_Label
  10
441.22
  20
310.79
  0
VERTEX
  8
MMIC_Label
  10
439.57
  20
310.79
  0
VERTEX
  8
MMIC_Label
  10
437.92
  20
311.12
  0
VERTEX
  8
MMIC_Label
  10
435.28
  20
312.44
  0
VERTEX
  8
MMIC_Label
  10
434.29
  20
313.76
  0
VERTEX
  8
MMIC_Label
  10
433.63
  20
315.08
  0
VERTEX
  8
MMIC_Label
  10
433.3
  20
317.06
  0
VERTEX
  8
MMIC_Label
  10
433.63
  20
318.71
  0
VERTEX
  8
MMIC_Label
  10
434.29
  20
320.03
  0
VERTEX
  8
MMIC_Label
  10
435.28
  20
321.35
  0
VERTEX
  8
MMIC_Label
  10
437.92
  20
322.67
  0
VERTEX
  8
MMIC_Label
  10
439.57
  20
323
  0
VERTEX
  8
MMIC_Label
  10
441.22
  20
323
  0
VERTEX
  8
MMIC_Label
  10
442.54
  20
322.67
  0
VERTEX
  8
MMIC_Label
  10
444.19
  20
322.01
  0
VERTEX
  8
MMIC_Label
  10
445.18
  20
321.35
  0
VERTEX
  8
MMIC_Label
  10
446.17
  20
320.03
  0
VERTEX
  8
MMIC_Label
  10
446.83
  20
318.71
  0
SEQEND
  0
POLYLINE
  8
MMIC_Label
  70
1
  66
1
  0
VERTEX
  8
MMIC_Label
  10
270.29
  20
264.11
  0
VERTEX
  8
MMIC_Label
  10
270.29
  20
272.69
  0
VERTEX
  8
MMIC_Label
  10
281.51
  20
272.69
  0
VERTEX
  8
MMIC_Label
  10
282.83
  20
272.03
  0
VERTEX
  8
MMIC_Label
  10
283.82
  20
271.04
  0
VERTEX
  8
MMIC_Label
  10
284.48
  20
269.72
  0
VERTEX
  8
MMIC_Label
  10
284.48
  20
267.08
  0
VERTEX
  8
MMIC_Label
  10
283.82
  20
265.76
  0
VERTEX
  8
MMIC_Label
  10
282.83
  20
264.77
  0
VERTEX
  8
MMIC_Label
  10
281.51
  20
264.11
  0
SEQEND
  0
POLYLINE
  8
MMIC_Label
  70
1
  66
1
  0
VERTEX
  8
MMIC_Label
  10
392.5
  20
328.94
  0
VERTEX
  8
MMIC_Label
  10
391.84
  20
331.25
  0
VERTEX
  8
MMIC_Label
  10
390.85
  20
333.56
  0
VERTEX
  8
MMIC_Label
  10
389.53
  20
335.21
  0
VERTEX
  8
MMIC_Label
  10
387.88
  20
336.86
  0
VERTEX
  8
MMIC_Label
  10
386.23
  20
338.18
  0
VERTEX
  8
MMIC_Label
  10
383.92
  20
339.17
  0
VERTEX
  8
MMIC_Label
  10
381.94
  20
339.5
  0
VERTEX
  8
MMIC_Label
  10
376.66
  20
339.5
  0
VERTEX
  8
MMIC_Label
  10
374.35
  20
339.17
  0
VERTEX
  8
MMIC_Label
  10
372.04
  20
337.85
  0
VERTEX
  8
MMIC_Label
  10
370.39
  20
336.53
  0
VERTEX
  8
MMIC_Label
  10
368.74
  20
334.88
  0
VERTEX
  8
MMIC_Label
  10
367.42
  20
332.57
  0
VERTEX
  8
MMIC_Label
  10
366.43
  20
330.59
  0
VERTEX
  8
MMIC_Label
  10
365.77
  20
327.95
  0
VERTEX
  8
MMIC_Label
  10
365.44
  20
325.64
  0
VERTEX
  8
MMIC_Label
  10
365.11
  20
323
  0
VERTEX
  8
MMIC_Label
  10
365.44
  20
320.36
  0
VERTEX
  8
MMIC_Label
  10
365.77
  20
318.05
  0
VERTEX
  8
MMIC_Label
  10
366.43
  20
315.41
  0
VERTEX
  8
MMIC_Label
  10
367.42
  20
313.43
  0
VERTEX
  8
MMIC_Label
  10
368.74
  20
311.12
  0
VERTEX
  8
MMIC_Label
  10
370.39
  20
309.47
  0
VERTEX
  8
MMIC_Label
  10
372.04
  20
308.15
  0
VERTEX
  8
MMIC_Label
  10
374.35
  20
306.83
  0
VERTEX
  8
MMIC_Label
  10
376.66
  20
306.5
  0
VERTEX
  8
MMIC_Label
  10
381.28
  20
306.5
  0
VERTEX
  8
MMIC_Label
  10
383.26
  20
306.83
  0
VERTEX
  8
MMIC_Label
  10
386.56
  20
308.81
  0
VERTEX
  8
MMIC_Label
  10
387.55
  20
310.46
  0
VERTEX
  8
MMIC_Label
  10
388.87
  20
306.5
  0
VERTEX
  8
MMIC_Label
  10
392.5
  20
306.5
  0
VERTEX
  8
MMIC_Label
  10
392.5
  20
323
  0
VERTEX
  8
MMIC_Label
  10
379.96
  20
323
  0
VERTEX
  8
MMIC_Label
  10
379.96
  20
318.05
  0
VERTEX
  8
MMIC_Label
  10
385.9
  20
318.05
  0
VERTEX
  8
MMIC_Label
  10
385.57
  20
316.4
  0
VERTEX
  8
MMIC_Label
  10
384.91
  20
314.75
  0
VERTEX
  8
MMIC_Label
  10
383.92
  20
313.43
  0
VERTEX
  8
MMIC_Label
  10
382.6
  20
312.44
  0
VERTEX
  8
MMIC_Label
  10
381.28
  20
311.78
  0
VERTEX
  8
MMIC_Label
  10
379.3
  20
311.45
  0
VERTEX
  8
MMIC_Label
  10
377.65
  20
311.78
  0
VERTEX
  8
MMIC_Label
  10
376
  20
312.44
  0
VERTEX
  8
MMIC_Label
  10
374.68
  20
313.43
  0
VERTEX
  8
MMIC_Label
  10
373.36
  20
315.08
  0
VERTEX
  8
MMIC_Label
  10
372.7
  20
316.73
  0
VERTEX
  8
MMIC_Label
  10
372.04
  20
318.71
  0
VERTEX
  8
MMIC_Label
  10
371.71
  20
320.69
  0
VERTEX
  8
MMIC_Label
  10
371.71
  20
325.31
  0
VERTEX
  8
MMIC_Label
  10
372.04
  20
327.29
  0
VERTEX
  8
MMIC_Label
  10
372.7
  20
329.27
  0
VERTEX
  8
MMIC_Label
  10
373.36
  20
330.92
  0
VERTEX
  8
MMIC_Label
  10
374.68
  20
332.57
  0
VERTEX
  8
MMIC_Label
  10
376
  20
333.56
  0
VERTEX
  8
MMIC_Label
  10
377.65
  20
334.22
  0
VERTEX
  8
MMIC_Label
  10
379.3
  20
334.55
  0
VERTEX
  8
MMIC_Label
  10
381.28
  20
334.22
  0
VERTEX
  8
MMIC_Label
  10
382.93
  20
333.23
  0
VERTEX
  8
MMIC_Label
  10
384.25
  20
332.24
  0
VERTEX
  8
MMIC_Label
  10
385.24
  20
330.59
  0
VERTEX
  8
MMIC_Label
  10
385.9
  20
328.94
  0
SEQEND
  0
POLYLINE
  8
MMIC_Label
  70
1
  66
1
  0
VERTEX
  8
MMIC_Label
  10
-383.9
  20
339.5
  0
VERTEX
  8
MMIC_Label
  10
-358.9
  20
339.5
  0
VERTEX
  8
MMIC_Label
  10
-358.9
  20
334.5
  0
VERTEX
  8
MMIC_Label
  10
-383.9
  20
334.5
  0
SEQEND
  0
POLYLINE
  8
MMIC_Label
  70
1
  66
1
  0
VERTEX
  8
MMIC_Label
  10
-323.9
  20
334.5
  0
VERTEX
  8
MMIC_Label
  10
-298.9
  20
334.5
  0
VERTEX
  8
MMIC_Label
  10
-298.9
  20
339.5
  0
VERTEX
  8
MMIC_Label
  10
-323.9
  20
339.5
  0
SEQEND
  0
POLYLINE
  8
MMIC_Label
  70
1
  66
1
  0
VERTEX
  8
MMIC_Label
  10
-387.14
  20
249.59
  0
VERTEX
  8
MMIC_Label
  10
-391.319
  20
257.226
  0
VERTEX
  8
MMIC_Label
  10
-387.436
  20
264.019
  0
VERTEX
  8
MMIC_Label
  10
-390.261
  20
264.019
  0
VERTEX
  8
MMIC_Label
  10
-392.154
  20
260.609
  0
VERTEX
  8
MMIC_Label
  10
-392.546
  20
259.916
  0
VERTEX
  8
MMIC_Label
  10
-393.011
  20
259.019
  0
VERTEX
  8
MMIC_Label
  10
-393.308
  20
259.672
  0
VERTEX
  8
MMIC_Label
  10
-393.794
  20
260.636
  0
VERTEX
  8
MMIC_Label
  10
-395.519
  20
264.019
  0
VERTEX
  8
MMIC_Label
  10
-398.449
  20
264.019
  0
VERTEX
  8
MMIC_Label
  10
-394.651
  20
257.09
  0
VERTEX
  8
MMIC_Label
  10
-398.756
  20
249.59
  0
VERTEX
  8
MMIC_Label
  10
-395.9
  20
249.59
  0
VERTEX
  8
MMIC_Label
  10
-392.948
  20
255.283
  0
VERTEX
  8
MMIC_Label
  10
-392.334
  20
254.074
  0
VERTEX
  8
MMIC_Label
  10
-390.028
  20
249.59
  0
SEQEND
  0
POLYLINE
  8
MMIC_Label
  70
1
  66
1
  0
VERTEX
  8
MMIC_Label
  10
-407.828
  20
269.69
  0
VERTEX
  8
MMIC_Label
  10
-409.224
  20
269.69
  0
VERTEX
  8
MMIC_Label
  10
-409.74
  20
268.351
  0
VERTEX
  8
MMIC_Label
  10
-410.923
  20
266.993
  0
VERTEX
  8
MMIC_Label
  10
-412.109
  20
265.632
  0
VERTEX
  8
MMIC_Label
  10
-413.741
  20
264.646
  0
VERTEX
  8
MMIC_Label
  10
-413.741
  20
262.122
  0
VERTEX
  8
MMIC_Label
  10
-413.717
  20
262.106
  0
VERTEX
  8
MMIC_Label
  10
-413.692
  20
262.091
  0
VERTEX
  8
MMIC_Label
  10
-412.701
  20
262.561
  0
VERTEX
  8
MMIC_Label
  10
-411.576
  20
263.409
  0
VERTEX
  8
MMIC_Label
  10
-410.45
  20
264.259
  0
VERTEX
  8
MMIC_Label
  10
-409.932
  20
264.893
  0
VERTEX
  8
MMIC_Label
  10
-409.932
  20
249.49
  0
VERTEX
  8
MMIC_Label
  10
-407.828
  20
249.49
  0
SEQEND
  0
POLYLINE
  8
MMIC_Label
  70
1
  66
1
  0
VERTEX
  8
MMIC_Label
  10
-302.028
  20
249.59
  0
VERTEX
  8
MMIC_Label
  10
-306.207
  20
257.226
  0
VERTEX
  8
MMIC_Label
  10
-302.324
  20
264.019
  0
VERTEX
  8
MMIC_Label
  10
-305.149
  20
264.019
  0
VERTEX
  8
MMIC_Label
  10
-307.042
  20
260.609
  0
VERTEX
  8
MMIC_Label
  10
-307.434
  20
259.916
  0
VERTEX
  8
MMIC_Label
  10
-307.899
  20
259.019
  0
VERTEX
  8
MMIC_Label
  10
-308.196
  20
259.672
  0
VERTEX
  8
MMIC_Label
  10
-308.682
  20
260.636
  0
VERTEX
  8
MMIC_Label
  10
-310.407
  20
264.019
  0
VERTEX
  8
MMIC_Label
  10
-313.337
  20
264.019
  0
VERTEX
  8
MMIC_Label
  10
-309.539
  20
257.09
  0
VERTEX
  8
MMIC_Label
  10
-313.644
  20
249.59
  0
VERTEX
  8
MMIC_Label
  10
-310.788
  20
249.59
  0
VERTEX
  8
MMIC_Label
  10
-307.836
  20
255.283
  0
VERTEX
  8
MMIC_Label
  10
-307.222
  20
254.074
  0
VERTEX
  8
MMIC_Label
  10
-304.916
  20
249.59
  0
SEQEND
  0
POLYLINE
  8
MMIC_Label
  70
1
  66
1
  0
VERTEX
  8
MMIC_Label
  10
-345.497
  20
256.53
  0
VERTEX
  8
MMIC_Label
  10
-352.807
  20
256.53
  0
VERTEX
  8
MMIC_Label
  10
-349.408
  20
263.82
  0
VERTEX
  8
MMIC_Label
  10
-349.16
  20
263.82
  0
VERTEX
  8
MMIC_Label
  10
-349.16
  20
258.99
  0
VERTEX
  8
MMIC_Label
  10
-346.641
  20
258.99
  0
VERTEX
  8
MMIC_Label
  10
-346.641
  20
269.69
  0
VERTEX
  8
MMIC_Label
  10
-348.82
  20
269.69
  0
VERTEX
  8
MMIC_Label
  10
-353.354
  20
260.103
  0
VERTEX
  8
MMIC_Label
  10
-354.986
  20
256.652
  0
VERTEX
  8
MMIC_Label
  10
-354.986
  20
254.279
  0
VERTEX
  8
MMIC_Label
  10
-349.83
  20
254.279
  0
VERTEX
  8
MMIC_Label
  10
-349.83
  20
249.49
  0
VERTEX
  8
MMIC_Label
  10
-347.311
  20
249.49
  0
VERTEX
  8
MMIC_Label
  10
-347.311
  20
254.279
  0
VERTEX
  8
MMIC_Label
  10
-345.497
  20
254.279
  0
SEQEND
  0
POLYLINE
  8
MMIC_Label
  70
1
  66
1
  0
VERTEX
  8
MMIC_Label
  10
-422.572
  20
257.09
  0
VERTEX
  8
MMIC_Label
  10
-426.37
  20
264.019
  0
VERTEX
  8
MMIC_Label
  10
-423.99
  20
264.019
  0
VERTEX
  8
MMIC_Label
  10
-422.265
  20
260.636
  0
VERTEX
  8
MMIC_Label
  10
-421.779
  20
259.672
  0
VERTEX
  8
MMIC_Label
  10
-421.482
  20
259.019
  0
VERTEX
  8
MMIC_Label
  10
-421.017
  20
259.916
  0
VERTEX
  8
MMIC_Label
  10
-420.625
  20
260.609
  0
VERTEX
  8
MMIC_Label
  10
-418.732
  20
264.019
  0
VERTEX
  8
MMIC_Label
  10
-416.457
  20
264.019
  0
VERTEX
  8
MMIC_Label
  10
-420.34
  20
257.226
  0
VERTEX
  8
MMIC_Label
  10
-416.161
  20
249.59
  0
VERTEX
  8
MMIC_Label
  10
-418.499
  20
249.59
  0
VERTEX
  8
MMIC_Label
  10
-420.805
  20
254.074
  0
VERTEX
  8
MMIC_Label
  10
-421.419
  20
255.283
  0
VERTEX
  8
MMIC_Label
  10
-424.371
  20
249.59
  0
VERTEX
  8
MMIC_Label
  10
-426.677
  20
249.59
  0
SEQEND
  0
POLYLINE
  8
MMIC_Label
  70
1
  66
1
  0
VERTEX
  8
MMIC_Label
  10
-318.552
  20
257.367
  0
VERTEX
  8
MMIC_Label
  10
-319.19
  20
258.666
  0
VERTEX
  8
MMIC_Label
  10
-319.834
  20
259.973
  0
VERTEX
  8
MMIC_Label
  10
-320.891
  20
260.478
  0
VERTEX
  8
MMIC_Label
  10
-320.064
  20
260.934
  0
VERTEX
  8
MMIC_Label
  10
-319.574
  20
261.944
  0
VERTEX
  8
MMIC_Label
  10
-319.088
  20
262.949
  0
VERTEX
  8
MMIC_Label
  10
-319.088
  20
266.416
  0
VERTEX
  8
MMIC_Label
  10
-320.149
  20
267.896
  0
VERTEX
  8
MMIC_Label
  10
-320.754
  20
268.74
  0
VERTEX
  8
MMIC_Label
  10
-321.221
  20
269.39
  0
VERTEX
  8
MMIC_Label
  10
-321.965
  20
269.39
  0
VERTEX
  8
MMIC_Label
  10
-321.965
  20
267.056
  0
VERTEX
  8
MMIC_Label
  10
-321.528
  20
266.425
  0
VERTEX
  8
MMIC_Label
  10
-321.366
  20
266.192
  0
VERTEX
  8
MMIC_Label
  10
-321.366
  20
262.487
  0
VERTEX
  8
MMIC_Label
  10
-321.51
  20
262.279
  0
VERTEX
  8
MMIC_Label
  10
-321.732
  20
261.96
  0
VERTEX
  8
MMIC_Label
  10
-324.187
  20
261.96
  0
VERTEX
  8
MMIC_Label
  10
-324.414
  20
262.287
  0
VERTEX
  8
MMIC_Label
  10
-324.594
  20
262.546
  0
VERTEX
  8
MMIC_Label
  10
-324.594
  20
266.178
  0
VERTEX
  8
MMIC_Label
  10
-323.965
  20
267.071
  0
VERTEX
  8
MMIC_Label
  10
-323.965
  20
269.39
  0
VERTEX
  8
MMIC_Label
  10
-324.735
  20
269.39
  0
VERTEX
  8
MMIC_Label
  10
-325.789
  20
267.929
  0
VERTEX
  8
MMIC_Label
  10
-326.834
  20
266.482
  0
VERTEX
  8
MMIC_Label
  10
-326.834
  20
262.963
  0
VERTEX
  8
MMIC_Label
  10
-325.846
  20
260.933
  0
VERTEX
  8
MMIC_Label
  10
-325.141
  20
260.554
  0
VERTEX
  8
MMIC_Label
  10
-325.014
  20
260.486
  0
VERTEX
  8
MMIC_Label
  10
-326.039
  20
260.094
  0
VERTEX
  8
MMIC_Label
  10
-326.703
  20
258.804
  0
VERTEX
  8
MMIC_Label
  10
-327.358
  20
257.526
  0
VERTEX
  8
MMIC_Label
  10
-327.358
  20
253.104
  0
VERTEX
  8
MMIC_Label
  10
-326.156
  20
251.407
  0
VERTEX
  8
MMIC_Label
  10
-325.694
  20
250.75
  0
VERTEX
  8
MMIC_Label
  10
-324.94
  20
249.69
  0
VERTEX
  8
MMIC_Label
  10
-323.843
  20
249.69
  0
VERTEX
  8
MMIC_Label
  10
-323.843
  20
251.979
  0
VERTEX
  8
MMIC_Label
  10
-324.255
  20
252.31
  0
VERTEX
  8
MMIC_Label
  10
-324.603
  20
252.589
  0
VERTEX
  8
MMIC_Label
  10
-325.212
  20
254.339
  0
VERTEX
  8
MMIC_Label
  10
-325.212
  20
257.675
  0
VERTEX
  8
MMIC_Label
  10
-324.783
  20
258.304
  0
VERTEX
  8
MMIC_Label
  10
-324.071
  20
259.354
  0
VERTEX
  8
MMIC_Label
  10
-321.886
  20
259.354
  0
VERTEX
  8
MMIC_Label
  10
-321.144
  20
258.291
  0
VERTEX
  8
MMIC_Label
  10
-320.732
  20
257.698
  0
VERTEX
  8
MMIC_Label
  10
-320.732
  20
253.42
  0
VERTEX
  8
MMIC_Label
  10
-321.122
  20
252.855
  0
VERTEX
  8
MMIC_Label
  10
-321.842
  20
251.818
  0
VERTEX
  8
MMIC_Label
  10
-321.842
  20
249.69
  0
VERTEX
  8
MMIC_Label
  10
-320.97
  20
249.69
  0
VERTEX
  8
MMIC_Label
  10
-319.756
  20
251.398
  0
VERTEX
  8
MMIC_Label
  10
-318.552
  20
253.092
  0
SEQEND
  0
POLYLINE
  8
MMIC_Label
  70
1
  66
1
  0
VERTEX
  8
MMIC_Label
  10
-328.9
  20
280.1
  0
VERTEX
  8
MMIC_Label
  10
-353.9
  20
280.1
  0
VERTEX
  8
MMIC_Label
  10
-353.9
  20
275.1
  0
VERTEX
  8
MMIC_Label
  10
-328.9
  20
275.1
  0
SEQEND
  0
POLYLINE
  8
MMIC_Label
  70
1
  66
1
  0
VERTEX
  8
MMIC_Label
  10
-375.618
  20
252.041
  0
VERTEX
  8
MMIC_Label
  10
-382.183
  20
252.041
  0
VERTEX
  8
MMIC_Label
  10
-381.967
  20
252.562
  0
VERTEX
  8
MMIC_Label
  10
-381.132
  20
253.862
  0
VERTEX
  8
MMIC_Label
  10
-379.642
  20
255.709
  0
VERTEX
  8
MMIC_Label
  10
-377.853
  20
257.943
  0
VERTEX
  8
MMIC_Label
  10
-377.081
  20
259.227
  0
VERTEX
  8
MMIC_Label
  10
-376.307
  20
260.515
  0
VERTEX
  8
MMIC_Label
  10
-375.972
  20
261.683
  0
VERTEX
  8
MMIC_Label
  10
-375.636
  20
262.85
  0
VERTEX
  8
MMIC_Label
  10
-375.636
  20
266.443
  0
VERTEX
  8
MMIC_Label
  10
-376.786
  20
268.058
  0
VERTEX
  8
MMIC_Label
  10
-377.948
  20
269.69
  0
VERTEX
  8
MMIC_Label
  10
-381.913
  20
269.69
  0
VERTEX
  8
MMIC_Label
  10
-384.244
  20
266.679
  0
VERTEX
  8
MMIC_Label
  10
-384.425
  20
263.744
  0
VERTEX
  8
MMIC_Label
  10
-382.534
  20
263.457
  0
VERTEX
  8
MMIC_Label
  10
-382.526
  20
263.464
  0
VERTEX
  8
MMIC_Label
  10
-382.518
  20
263.47
  0
VERTEX
  8
MMIC_Label
  10
-382.509
  20
265.415
  0
VERTEX
  8
MMIC_Label
  10
-381.809
  20
266.45
  0
VERTEX
  8
MMIC_Label
  10
-381.418
  20
267.026
  0
VERTEX
  8
MMIC_Label
  10
-378.587
  20
267.026
  0
VERTEX
  8
MMIC_Label
  10
-377.878
  20
266.02
  0
VERTEX
  8
MMIC_Label
  10
-377.878
  20
262.068
  0
VERTEX
  8
MMIC_Label
  10
-379.068
  20
259.672
  0
VERTEX
  8
MMIC_Label
  10
-381.259
  20
257.018
  0
VERTEX
  8
MMIC_Label
  10
-381.26
  20
257.018
  0
VERTEX
  8
MMIC_Label
  10
-382.682
  20
255.299
  0
VERTEX
  8
MMIC_Label
  10
-383.437
  20
253.988
  0
VERTEX
  8
MMIC_Label
  10
-384.194
  20
252.671
  0
VERTEX
  8
MMIC_Label
  10
-384.536
  20
251.315
  0
VERTEX
  8
MMIC_Label
  10
-384.752
  20
250.485
  0
VERTEX
  8
MMIC_Label
  10
-384.731
  20
249.49
  0
VERTEX
  8
MMIC_Label
  10
-375.618
  20
249.49
  0
SEQEND
  0
POLYLINE
  8
MMIC_Label
  70
1
  66
1
  0
VERTEX
  8
MMIC_Label
  10
-355.3
  20
249.59
  0
VERTEX
  8
MMIC_Label
  10
-359.479
  20
257.226
  0
VERTEX
  8
MMIC_Label
  10
-355.596
  20
264.019
  0
VERTEX
  8
MMIC_Label
  10
-358.421
  20
264.019
  0
VERTEX
  8
MMIC_Label
  10
-360.314
  20
260.609
  0
VERTEX
  8
MMIC_Label
  10
-360.706
  20
259.916
  0
VERTEX
  8
MMIC_Label
  10
-361.171
  20
259.019
  0
VERTEX
  8
MMIC_Label
  10
-361.468
  20
259.672
  0
VERTEX
  8
MMIC_Label
  10
-361.954
  20
260.636
  0
VERTEX
  8
MMIC_Label
  10
-363.679
  20
264.019
  0
VERTEX
  8
MMIC_Label
  10
-366.609
  20
264.019
  0
VERTEX
  8
MMIC_Label
  10
-362.811
  20
257.09
  0
VERTEX
  8
MMIC_Label
  10
-366.916
  20
249.59
  0
VERTEX
  8
MMIC_Label
  10
-364.06
  20
249.59
  0
VERTEX
  8
MMIC_Label
  10
-361.108
  20
255.283
  0
VERTEX
  8
MMIC_Label
  10
-360.494
  20
254.074
  0
VERTEX
  8
MMIC_Label
  10
-358.188
  20
249.59
  0
SEQEND
  0
POLYLINE
  8
MMIC_Label
  70
1
  66
1
  0
VERTEX
  8
MMIC_Label
  10
-413.9
  20
339.5
  0
VERTEX
  8
MMIC_Label
  10
-388.9
  20
339.5
  0
VERTEX
  8
MMIC_Label
  10
-388.9
  20
334.5
  0
VERTEX
  8
MMIC_Label
  10
-413.9
  20
334.5
  0
SEQEND
  0
POLYLINE
  8
MMIC_Label
  70
1
  66
1
  0
VERTEX
  8
MMIC_Label
  10
-293.875
  20
269.69
  0
VERTEX
  8
MMIC_Label
  10
-296.291
  20
269.69
  0
VERTEX
  8
MMIC_Label
  10
-297.617
  20
266.251
  0
VERTEX
  8
MMIC_Label
  10
-298.156
  20
265.632
  0
VERTEX
  8
MMIC_Label
  10
-299.788
  20
264.646
  0
VERTEX
  8
MMIC_Label
  10
-299.788
  20
262.122
  0
VERTEX
  8
MMIC_Label
  10
-299.764
  20
262.106
  0
VERTEX
  8
MMIC_Label
  10
-299.739
  20
262.091
  0
VERTEX
  8
MMIC_Label
  10
-298.748
  20
262.561
  0
VERTEX
  8
MMIC_Label
  10
-297.623
  20
263.409
  0
VERTEX
  8
MMIC_Label
  10
-297.619
  20
263.412
  0
VERTEX
  8
MMIC_Label
  10
-297.337
  20
263.757
  0
VERTEX
  8
MMIC_Label
  10
-297.337
  20
263.72
  0
VERTEX
  8
MMIC_Label
  10
-296.409
  20
263.72
  0
VERTEX
  8
MMIC_Label
  10
-296.409
  20
249.49
  0
VERTEX
  8
MMIC_Label
  10
-293.875
  20
249.49
  0
SEQEND
  0
POLYLINE
  8
MMIC_Label
  70
1
  66
1
  0
VERTEX
  8
MMIC_Label
  10
-328.728
  20
249.59
  0
VERTEX
  8
MMIC_Label
  10
-332.907
  20
257.226
  0
VERTEX
  8
MMIC_Label
  10
-329.024
  20
264.019
  0
VERTEX
  8
MMIC_Label
  10
-331.849
  20
264.019
  0
VERTEX
  8
MMIC_Label
  10
-333.742
  20
260.609
  0
VERTEX
  8
MMIC_Label
  10
-334.134
  20
259.916
  0
VERTEX
  8
MMIC_Label
  10
-334.599
  20
259.019
  0
VERTEX
  8
MMIC_Label
  10
-334.896
  20
259.672
  0
VERTEX
  8
MMIC_Label
  10
-335.382
  20
260.636
  0
VERTEX
  8
MMIC_Label
  10
-337.107
  20
264.019
  0
VERTEX
  8
MMIC_Label
  10
-340.037
  20
264.019
  0
VERTEX
  8
MMIC_Label
  10
-336.239
  20
257.09
  0
VERTEX
  8
MMIC_Label
  10
-340.344
  20
249.59
  0
VERTEX
  8
MMIC_Label
  10
-337.488
  20
249.59
  0
VERTEX
  8
MMIC_Label
  10
-334.536
  20
255.283
  0
VERTEX
  8
MMIC_Label
  10
-333.922
  20
254.074
  0
VERTEX
  8
MMIC_Label
  10
-331.616
  20
249.59
  0
SEQEND
  0
POLYLINE
  8
MMIC_Label
  70
1
  66
1
  0
VERTEX
  8
MMIC_Label
  10
-353.9
  20
339.5
  0
VERTEX
  8
MMIC_Label
  10
-328.9
  20
339.5
  0
VERTEX
  8
MMIC_Label
  10
-328.9
  20
334.5
  0
VERTEX
  8
MMIC_Label
  10
-353.9
  20
334.5
  0
SEQEND
  0
POLYLINE
  8
MMIC_Label
  70
1
  66
1
  0
VERTEX
  8
MMIC_Label
  10
332.31
  20
306.5
  0
VERTEX
  8
MMIC_Label
  10
342.21
  20
339.5
  0
VERTEX
  8
MMIC_Label
  10
349.8
  20
339.5
  0
VERTEX
  8
MMIC_Label
  10
359.7
  20
306.5
  0
VERTEX
  8
MMIC_Label
  10
352.77
  20
306.5
  0
VERTEX
  8
MMIC_Label
  10
351.12
  20
313.1
  0
VERTEX
  8
MMIC_Label
  10
341.22
  20
313.1
  0
VERTEX
  8
MMIC_Label
  10
339.57
  20
306.5
  0
SEQEND
  0
POLYLINE
  8
MMIC_Label
  70
1
  66
1
  0
VERTEX
  8
MMIC_Label
  10
303.09
  20
275.99
  0
VERTEX
  8
MMIC_Label
  10
303.09
  20
285.89
  0
VERTEX
  8
MMIC_Label
  10
314.64
  20
285.89
  0
VERTEX
  8
MMIC_Label
  10
315.63
  20
285.23
  0
VERTEX
  8
MMIC_Label
  10
316.62
  20
284.24
  0
VERTEX
  8
MMIC_Label
  10
317.28
  20
282.92
  0
VERTEX
  8
MMIC_Label
  10
317.61
  20
281.6
  0
VERTEX
  8
MMIC_Label
  10
317.61
  20
280.28
  0
VERTEX
  8
MMIC_Label
  10
317.28
  20
278.96
  0
VERTEX
  8
MMIC_Label
  10
316.62
  20
277.97
  0
VERTEX
  8
MMIC_Label
  10
315.63
  20
276.98
  0
VERTEX
  8
MMIC_Label
  10
314.64
  20
276.32
  0
VERTEX
  8
MMIC_Label
  10
312.99
  20
275.99
  0
SEQEND
  0
POLYLINE
  8
MMIC_Label
  70
1
  66
1
  0
VERTEX
  8
MMIC_Label
  10
207.99
  20
270.05
  0
VERTEX
  8
MMIC_Label
  10
211.95
  20
284.24
  0
VERTEX
  8
MMIC_Label
  10
215.58
  20
270.05
  0
SEQEND
  0
POLYLINE
  8
MMIC_Label
  70
1
  66
1
  0
VERTEX
  8
MMIC_Label
  10
427.69
  20
258.5
  0
VERTEX
  8
MMIC_Label
  10
437.59
  20
275
  0
VERTEX
  8
MMIC_Label
  10
427.69
  20
291.5
  0
VERTEX
  8
MMIC_Label
  10
434.95
  20
291.5
  0
VERTEX
  8
MMIC_Label
  10
441.55
  20
280.61
  0
VERTEX
  8
MMIC_Label
  10
448.15
  20
291.5
  0
VERTEX
  8
MMIC_Label
  10
455.08
  20
291.5
  0
VERTEX
  8
MMIC_Label
  10
445.18
  20
275
  0
VERTEX
  8
MMIC_Label
  10
455.08
  20
258.5
  0
VERTEX
  8
MMIC_Label
  10
448.15
  20
258.5
  0
VERTEX
  8
MMIC_Label
  10
441.55
  20
269.39
  0
VERTEX
  8
MMIC_Label
  10
434.95
  20
258.5
  0
SEQEND
  0
POLYLINE
  8
MMIC_Label
  70
1
  66
1
  0
VERTEX
  8
MMIC_Label
  10
270.29
  20
278.3
  0
VERTEX
  8
MMIC_Label
  10
270.29
  20
285.89
  0
VERTEX
  8
MMIC_Label
  10
280.85
  20
285.89
  0
VERTEX
  8
MMIC_Label
  10
282.83
  20
284.57
  0
VERTEX
  8
MMIC_Label
  10
283.16
  20
283.25
  0
VERTEX
  8
MMIC_Label
  10
283.49
  20
282.26
  0
VERTEX
  8
MMIC_Label
  10
283.16
  20
280.94
  0
VERTEX
  8
MMIC_Label
  10
282.83
  20
279.95
  0
VERTEX
  8
MMIC_Label
  10
281.84
  20
278.96
  0
VERTEX
  8
MMIC_Label
  10
280.85
  20
278.63
  0
VERTEX
  8
MMIC_Label
  10
279.53
  20
278.3
  0
SEQEND
  0
POLYLINE
  8
MMIC_Label
  70
1
  66
1
  0
VERTEX
  8
MMIC_Label
  10
270.29
  20
278.3
  0
VERTEX
  8
MMIC_Label
  10
270.29
  20
285.89
  0
VERTEX
  8
MMIC_Label
  10
280.85
  20
285.89
  0
VERTEX
  8
MMIC_Label
  10
282.83
  20
284.57
  0
VERTEX
  8
MMIC_Label
  10
283.16
  20
283.25
  0
VERTEX
  8
MMIC_Label
  10
283.49
  20
282.26
  0
VERTEX
  8
MMIC_Label
  10
283.16
  20
280.94
  0
VERTEX
  8
MMIC_Label
  10
282.83
  20
279.95
  0
VERTEX
  8
MMIC_Label
  10
281.84
  20
278.96
  0
VERTEX
  8
MMIC_Label
  10
280.85
  20
278.63
  0
VERTEX
  8
MMIC_Label
  10
279.53
  20
278.3
  0
SEQEND
  0
POLYLINE
  8
MMIC_Label
  70
1
  66
1
  0
VERTEX
  8
MMIC_Label
  10
342.21
  20
318.05
  0
VERTEX
  8
MMIC_Label
  10
346.17
  20
332.24
  0
VERTEX
  8
MMIC_Label
  10
349.8
  20
318.05
  0
SEQEND
  0
POLYLINE
  8
MMIC_Label
  70
1
  66
1
  0
VERTEX
  8
MMIC_Label
  10
207.99
  20
270.05
  0
VERTEX
  8
MMIC_Label
  10
211.95
  20
284.24
  0
VERTEX
  8
MMIC_Label
  10
215.58
  20
270.05
  0
SEQEND
  0
POLYLINE
  8
MMIC_Label
  70
1
  66
1
  0
VERTEX
  8
MMIC_Label
  10
342.21
  20
318.05
  0
VERTEX
  8
MMIC_Label
  10
346.17
  20
332.24
  0
VERTEX
  8
MMIC_Label
  10
349.8
  20
318.05
  0
SEQEND
  0
POLYLINE
  8
MMIC_Label
  70
1
  66
1
  0
VERTEX
  8
MMIC_Label
  10
-333.9
  20
300.2
  0
VERTEX
  8
MMIC_Label
  10
-318.9
  20
300.2
  0
VERTEX
  8
MMIC_Label
  10
-318.9
  20
285.2
  0
VERTEX
  8
MMIC_Label
  10
-333.9
  20
285.2
  0
SEQEND
  0
POLYLINE
  8
MMIC_Label
  70
1
  66
1
  0
VERTEX
  8
MMIC_Label
  10
-393.9
  20
330.2
  0
VERTEX
  8
MMIC_Label
  10
-378.9
  20
330.2
  0
VERTEX
  8
MMIC_Label
  10
-378.9
  20
315.2
  0
VERTEX
  8
MMIC_Label
  10
-393.9
  20
315.2
  0
SEQEND
  0
POLYLINE
  8
MMIC_Label
  70
1
  66
1
  0
VERTEX
  8
MMIC_Label
  10
-423.9
  20
300.2
  0
VERTEX
  8
MMIC_Label
  10
-408.9
  20
300.2
  0
VERTEX
  8
MMIC_Label
  10
-408.9
  20
285.2
  0
VERTEX
  8
MMIC_Label
  10
-423.9
  20
285.2
  0
SEQEND
  0
POLYLINE
  8
MMIC_Label
  70
1
  66
1
  0
VERTEX
  8
MMIC_Label
  10
-333.9
  20
330.2
  0
VERTEX
  8
MMIC_Label
  10
-318.9
  20
330.2
  0
VERTEX
  8
MMIC_Label
  10
-318.9
  20
315.2
  0
VERTEX
  8
MMIC_Label
  10
-333.9
  20
315.2
  0
SEQEND
  0
POLYLINE
  8
MMIC_Label
  70
1
  66
1
  0
VERTEX
  8
MMIC_Label
  10
-303.9
  20
300.2
  0
VERTEX
  8
MMIC_Label
  10
-288.9
  20
300.2
  0
VERTEX
  8
MMIC_Label
  10
-288.9
  20
285.2
  0
VERTEX
  8
MMIC_Label
  10
-303.9
  20
285.2
  0
SEQEND
  0
POLYLINE
  8
MMIC_Label
  70
1
  66
1
  0
VERTEX
  8
MMIC_Label
  10
-388.9
  20
280.1
  0
VERTEX
  8
MMIC_Label
  10
-413.9
  20
280.1
  0
VERTEX
  8
MMIC_Label
  10
-413.9
  20
275.1
  0
VERTEX
  8
MMIC_Label
  10
-388.9
  20
275.1
  0
SEQEND
  0
POLYLINE
  8
MMIC_Label
  70
1
  66
1
  0
VERTEX
  8
MMIC_Label
  10
-323.9
  20
339.5
  0
VERTEX
  8
MMIC_Label
  10
-298.9
  20
339.5
  0
VERTEX
  8
MMIC_Label
  10
-298.9
  20
334.5
  0
VERTEX
  8
MMIC_Label
  10
-323.9
  20
334.5
  0
SEQEND
  0
POLYLINE
  8
MMIC_Label
  70
1
  66
1
  0
VERTEX
  8
MMIC_Label
  10
-278.559
  20
255.023
  0
VERTEX
  8
MMIC_Label
  10
-279.155
  20
259.497
  0
VERTEX
  8
MMIC_Label
  10
-279.158
  20
259.506
  0
VERTEX
  8
MMIC_Label
  10
-281.066
  20
262.56
  0
VERTEX
  8
MMIC_Label
  10
-285.747
  20
262.56
  0
VERTEX
  8
MMIC_Label
  10
-285.747
  20
259.79
  0
VERTEX
  8
MMIC_Label
  10
-282.295
  20
259.79
  0
VERTEX
  8
MMIC_Label
  10
-281.852
  20
259.291
  0
VERTEX
  8
MMIC_Label
  10
-281.553
  20
258.814
  0
VERTEX
  8
MMIC_Label
  10
-281.074
  20
255.231
  0
VERTEX
  8
MMIC_Label
  10
-282.066
  20
252.915
  0
VERTEX
  8
MMIC_Label
  10
-282.239
  20
252.656
  0
VERTEX
  8
MMIC_Label
  10
-283.474
  20
252.001
  0
VERTEX
  8
MMIC_Label
  10
-285.323
  20
252.085
  0
VERTEX
  8
MMIC_Label
  10
-286.557
  20
252.332
  0
VERTEX
  8
MMIC_Label
  10
-287.363
  20
252.869
  0
VERTEX
  8
MMIC_Label
  10
-288.147
  20
254.516
  0
VERTEX
  8
MMIC_Label
  10
-288.147
  20
266.43
  0
VERTEX
  8
MMIC_Label
  10
-288.092
  20
266.867
  0
VERTEX
  8
MMIC_Label
  10
-287.178
  20
267.934
  0
VERTEX
  8
MMIC_Label
  10
-286.829
  20
268.167
  0
VERTEX
  8
MMIC_Label
  10
-285.554
  20
268.507
  0
VERTEX
  8
MMIC_Label
  10
-284.967
  20
268.58
  0
VERTEX
  8
MMIC_Label
  10
-283.059
  20
268.262
  0
VERTEX
  8
MMIC_Label
  10
-282.552
  20
267.691
  0
VERTEX
  8
MMIC_Label
  10
-282.179
  20
267.094
  0
VERTEX
  8
MMIC_Label
  10
-281.917
  20
266.047
  0
VERTEX
  8
MMIC_Label
  10
-279.758
  20
266.588
  0
VERTEX
  8
MMIC_Label
  10
-280.211
  20
268.402
  0
VERTEX
  8
MMIC_Label
  10
-280.24
  20
268.448
  0
VERTEX
  8
MMIC_Label
  10
-282.193
  20
270.644
  0
VERTEX
  8
MMIC_Label
  10
-284.927
  20
271.1
  0
VERTEX
  8
MMIC_Label
  10
-285.94
  20
270.973
  0
VERTEX
  8
MMIC_Label
  10
-287.943
  20
270.439
  0
VERTEX
  8
MMIC_Label
  10
-290.704
  20
267.22
  0
VERTEX
  8
MMIC_Label
  10
-290.787
  20
266.55
  0
VERTEX
  8
MMIC_Label
  10
-290.787
  20
254.064
  0
VERTEX
  8
MMIC_Label
  10
-289.13
  20
250.583
  0
VERTEX
  8
MMIC_Label
  10
-287.757
  20
249.668
  0
VERTEX
  8
MMIC_Label
  10
-285.991
  20
249.315
  0
VERTEX
  8
MMIC_Label
  10
-282.641
  20
249.163
  0
VERTEX
  8
MMIC_Label
  10
-281.128
  20
249.962
  0
VERTEX
  8
MMIC_Label
  10
-280.008
  20
251.645
  0
SEQEND
  0
POLYLINE
  8
MMIC_Label
  70
1
  66
1
  0
VERTEX
  8
MMIC_Label
  10
-418.9
  20
280.1
  0
VERTEX
  8
MMIC_Label
  10
-443.9
  20
280.1
  0
VERTEX
  8
MMIC_Label
  10
-443.9
  20
275.1
  0
VERTEX
  8
MMIC_Label
  10
-418.9
  20
275.1
  0
SEQEND
  0
POLYLINE
  8
MMIC_Label
  70
1
  66
1
  0
VERTEX
  8
MMIC_Label
  10
-440.6
  20
286.7
  0
VERTEX
  8
MMIC_Label
  10
-442.3
  20
285
  0
VERTEX
  8
MMIC_Label
  10
-444.3
  20
284
  0
VERTEX
  8
MMIC_Label
  10
-448.1
  20
284
  0
VERTEX
  8
MMIC_Label
  10
-450
  20
285.1
  0
VERTEX
  8
MMIC_Label
  10
-451.6
  20
286.9
  0
VERTEX
  8
MMIC_Label
  10
-452.5
  20
288.5
  0
VERTEX
  8
MMIC_Label
  10
-453.4
  20
291.1
  0
VERTEX
  8
MMIC_Label
  10
-453.4
  20
293.6
  0
VERTEX
  8
MMIC_Label
  10
-452.5
  20
296
  0
VERTEX
  8
MMIC_Label
  10
-451.6
  20
297.8
  0
VERTEX
  8
MMIC_Label
  10
-449.9
  20
299.5
  0
VERTEX
  8
MMIC_Label
  10
-447.9
  20
300.5
  0
VERTEX
  8
MMIC_Label
  10
-444.1
  20
300.5
  0
VERTEX
  8
MMIC_Label
  10
-442.4
  20
299.5
  0
VERTEX
  8
MMIC_Label
  10
-440.6
  20
297.8
  0
VERTEX
  8
MMIC_Label
  10
-439.7
  20
296.1
  0
VERTEX
  8
MMIC_Label
  10
-442.4
  20
294.7
  0
VERTEX
  8
MMIC_Label
  10
-443
  20
296
  0
VERTEX
  8
MMIC_Label
  10
-444.2
  20
297
  0
VERTEX
  8
MMIC_Label
  10
-444.9
  20
297.5
  0
VERTEX
  8
MMIC_Label
  10
-447.2
  20
297.5
  0
VERTEX
  8
MMIC_Label
  10
-448.1
  20
297
  0
VERTEX
  8
MMIC_Label
  10
-449.1
  20
296
  0
VERTEX
  8
MMIC_Label
  10
-449.7
  20
294.8
  0
VERTEX
  8
MMIC_Label
  10
-450.4
  20
293
  0
VERTEX
  8
MMIC_Label
  10
-450.4
  20
291.6
  0
VERTEX
  8
MMIC_Label
  10
-449.7
  20
289.7
  0
VERTEX
  8
MMIC_Label
  10
-449.1
  20
288.6
  0
VERTEX
  8
MMIC_Label
  10
-448.1
  20
287.4
  0
VERTEX
  8
MMIC_Label
  10
-447.3
  20
287
  0
VERTEX
  8
MMIC_Label
  10
-445
  20
287
  0
VERTEX
  8
MMIC_Label
  10
-444.1
  20
287.5
  0
VERTEX
  8
MMIC_Label
  10
-443.1
  20
288.5
  0
VERTEX
  8
MMIC_Label
  10
-442.4
  20
289.8
  0
VERTEX
  8
MMIC_Label
  10
-439.7
  20
288.4
  0
SEQEND
  0
POLYLINE
  8
MMIC_Label
  70
1
  66
1
  0
VERTEX
  8
MMIC_Label
  10
-440.3
  20
325.3
  0
VERTEX
  8
MMIC_Label
  10
-440.3
  20
327.4
  0
VERTEX
  8
MMIC_Label
  10
-441.4
  20
329.3
  0
VERTEX
  8
MMIC_Label
  10
-442.6
  20
330.3
  0
VERTEX
  8
MMIC_Label
  10
-445.2
  20
331.2
  0
VERTEX
  8
MMIC_Label
  10
-453.4
  20
331.2
  0
VERTEX
  8
MMIC_Label
  10
-453.4
  20
314.7
  0
VERTEX
  8
MMIC_Label
  10
-450.4
  20
314.7
  0
VERTEX
  8
MMIC_Label
  10
-450.4
  20
328.2
  0
VERTEX
  8
MMIC_Label
  10
-445.7
  20
328.2
  0
VERTEX
  8
MMIC_Label
  10
-444.1
  20
327.6
  0
VERTEX
  8
MMIC_Label
  10
-443.8
  20
327.4
  0
VERTEX
  8
MMIC_Label
  10
-443.3
  20
326.6
  0
VERTEX
  8
MMIC_Label
  10
-443.3
  20
326
  0
VERTEX
  8
MMIC_Label
  10
-444
  20
324.7
  0
VERTEX
  8
MMIC_Label
  10
-444.2
  20
324.6
  0
VERTEX
  8
MMIC_Label
  10
-445.8
  20
324
  0
VERTEX
  8
MMIC_Label
  10
-448.9
  20
324
  0
VERTEX
  8
MMIC_Label
  10
-448.9
  20
321
  0
VERTEX
  8
MMIC_Label
  10
-447.6
  20
321
  0
VERTEX
  8
MMIC_Label
  10
-443.1
  20
313.9
  0
VERTEX
  8
MMIC_Label
  10
-440.6
  20
315.5
  0
VERTEX
  8
MMIC_Label
  10
-444.3
  20
321.4
  0
VERTEX
  8
MMIC_Label
  10
-442.5
  20
321.9
  0
VERTEX
  8
MMIC_Label
  10
-441.5
  20
323
  0
SEQEND
  0
POLYLINE
  8
MMIC_Label
  70
1
  66
1
  0
VERTEX
  8
MMIC_Label
  10
-443.9
  20
339.5
  0
VERTEX
  8
MMIC_Label
  10
-418.9
  20
339.5
  0
VERTEX
  8
MMIC_Label
  10
-418.9
  20
334.5
  0
VERTEX
  8
MMIC_Label
  10
-443.9
  20
334.5
  0
SEQEND
  0
POLYLINE
  8
MMIC_Label
  70
1
  66
1
  0
VERTEX
  8
MMIC_Label
  10
-458.9
  20
275.1
  0
VERTEX
  8
MMIC_Label
  10
-458.9
  20
339.5
  0
VERTEX
  8
MMIC_Label
  10
-463.9
  20
339.5
  0
VERTEX
  8
MMIC_Label
  10
-463.9
  20
275.1
  0
SEQEND
  0
POLYLINE
  8
MMIC_Label
  70
1
  66
1
  0
VERTEX
  8
MMIC_Label
  10
-298.9
  20
280.1
  0
VERTEX
  8
MMIC_Label
  10
-323.9
  20
280.1
  0
VERTEX
  8
MMIC_Label
  10
-323.9
  20
275.1
  0
VERTEX
  8
MMIC_Label
  10
-298.9
  20
275.1
  0
SEQEND
  0
POLYLINE
  8
MMIC_Label
  70
1
  66
1
  0
VERTEX
  8
MMIC_Label
  10
-338.9
  20
275.1
  0
VERTEX
  8
MMIC_Label
  10
-338.9
  20
339.5
  0
VERTEX
  8
MMIC_Label
  10
-343.9
  20
339.5
  0
VERTEX
  8
MMIC_Label
  10
-343.9
  20
275.1
  0
SEQEND
  0
POLYLINE
  8
MMIC_Label
  70
1
  66
1
  0
VERTEX
  8
MMIC_Label
  10
-278.9
  20
275.1
  0
VERTEX
  8
MMIC_Label
  10
-278.9
  20
339.5
  0
VERTEX
  8
MMIC_Label
  10
-283.9
  20
339.5
  0
VERTEX
  8
MMIC_Label
  10
-283.9
  20
275.1
  0
SEQEND
  0
POLYLINE
  8
MMIC_Label
  70
1
  66
1
  0
VERTEX
  8
MMIC_Label
  10
-308.9
  20
275.1
  0
VERTEX
  8
MMIC_Label
  10
-308.9
  20
339.5
  0
VERTEX
  8
MMIC_Label
  10
-313.9
  20
339.5
  0
VERTEX
  8
MMIC_Label
  10
-313.9
  20
275.1
  0
SEQEND
  0
POLYLINE
  8
MMIC_Label
  70
1
  66
1
  0
VERTEX
  8
MMIC_Label
  10
-358.9
  20
280.1
  0
VERTEX
  8
MMIC_Label
  10
-383.9
  20
280.1
  0
VERTEX
  8
MMIC_Label
  10
-383.9
  20
275.1
  0
VERTEX
  8
MMIC_Label
  10
-358.9
  20
275.1
  0
SEQEND
  0
POLYLINE
  8
MMIC_Label
  70
1
  66
1
  0
VERTEX
  8
MMIC_Label
  10
-428.9
  20
275.1
  0
VERTEX
  8
MMIC_Label
  10
-428.9
  20
339.5
  0
VERTEX
  8
MMIC_Label
  10
-433.9
  20
339.5
  0
VERTEX
  8
MMIC_Label
  10
-433.9
  20
275.1
  0
SEQEND
  0
POLYLINE
  8
MMIC_Label
  70
1
  66
1
  0
VERTEX
  8
MMIC_Label
  10
-368.9
  20
275.1
  0
VERTEX
  8
MMIC_Label
  10
-368.9
  20
339.5
  0
VERTEX
  8
MMIC_Label
  10
-373.9
  20
339.5
  0
VERTEX
  8
MMIC_Label
  10
-373.9
  20
275.1
  0
SEQEND
  0
POLYLINE
  8
MMIC_Label
  70
1
  66
1
  0
VERTEX
  8
MMIC_Label
  10
-355.3
  20
249.59
  0
VERTEX
  8
MMIC_Label
  10
-359.479
  20
257.226
  0
VERTEX
  8
MMIC_Label
  10
-355.596
  20
264.019
  0
VERTEX
  8
MMIC_Label
  10
-358.421
  20
264.019
  0
VERTEX
  8
MMIC_Label
  10
-360.314
  20
260.609
  0
VERTEX
  8
MMIC_Label
  10
-360.706
  20
259.916
  0
VERTEX
  8
MMIC_Label
  10
-361.171
  20
259.019
  0
VERTEX
  8
MMIC_Label
  10
-361.468
  20
259.672
  0
VERTEX
  8
MMIC_Label
  10
-361.954
  20
260.636
  0
VERTEX
  8
MMIC_Label
  10
-363.679
  20
264.019
  0
VERTEX
  8
MMIC_Label
  10
-366.609
  20
264.019
  0
VERTEX
  8
MMIC_Label
  10
-362.811
  20
257.09
  0
VERTEX
  8
MMIC_Label
  10
-366.916
  20
249.59
  0
VERTEX
  8
MMIC_Label
  10
-364.06
  20
249.59
  0
VERTEX
  8
MMIC_Label
  10
-361.108
  20
255.283
  0
VERTEX
  8
MMIC_Label
  10
-360.494
  20
254.074
  0
VERTEX
  8
MMIC_Label
  10
-358.188
  20
249.59
  0
SEQEND
  0
POLYLINE
  8
MMIC_Label
  70
1
  66
1
  0
VERTEX
  8
MMIC_Label
  10
270.29
  20
264.11
  0
VERTEX
  8
MMIC_Label
  10
270.29
  20
272.69
  0
VERTEX
  8
MMIC_Label
  10
281.51
  20
272.69
  0
VERTEX
  8
MMIC_Label
  10
282.83
  20
272.03
  0
VERTEX
  8
MMIC_Label
  10
283.82
  20
271.04
  0
VERTEX
  8
MMIC_Label
  10
284.48
  20
269.72
  0
VERTEX
  8
MMIC_Label
  10
284.48
  20
267.08
  0
VERTEX
  8
MMIC_Label
  10
283.82
  20
265.76
  0
VERTEX
  8
MMIC_Label
  10
282.83
  20
264.77
  0
VERTEX
  8
MMIC_Label
  10
281.51
  20
264.11
  0
SEQEND
  0
POLYLINE
  8
MMIC_Label
  70
1
  66
1
  0
VERTEX
  8
MMIC_Label
  10
-318.552
  20
257.367
  0
VERTEX
  8
MMIC_Label
  10
-319.19
  20
258.666
  0
VERTEX
  8
MMIC_Label
  10
-319.834
  20
259.973
  0
VERTEX
  8
MMIC_Label
  10
-320.891
  20
260.478
  0
VERTEX
  8
MMIC_Label
  10
-320.064
  20
260.934
  0
VERTEX
  8
MMIC_Label
  10
-319.574
  20
261.944
  0
VERTEX
  8
MMIC_Label
  10
-319.088
  20
262.949
  0
VERTEX
  8
MMIC_Label
  10
-319.088
  20
266.416
  0
VERTEX
  8
MMIC_Label
  10
-320.149
  20
267.896
  0
VERTEX
  8
MMIC_Label
  10
-320.754
  20
268.74
  0
VERTEX
  8
MMIC_Label
  10
-321.221
  20
269.39
  0
VERTEX
  8
MMIC_Label
  10
-321.965
  20
269.39
  0
VERTEX
  8
MMIC_Label
  10
-321.965
  20
267.056
  0
VERTEX
  8
MMIC_Label
  10
-321.528
  20
266.425
  0
VERTEX
  8
MMIC_Label
  10
-321.366
  20
266.192
  0
VERTEX
  8
MMIC_Label
  10
-321.366
  20
262.487
  0
VERTEX
  8
MMIC_Label
  10
-321.51
  20
262.279
  0
VERTEX
  8
MMIC_Label
  10
-321.732
  20
261.96
  0
VERTEX
  8
MMIC_Label
  10
-324.187
  20
261.96
  0
VERTEX
  8
MMIC_Label
  10
-324.414
  20
262.287
  0
VERTEX
  8
MMIC_Label
  10
-324.594
  20
262.546
  0
VERTEX
  8
MMIC_Label
  10
-324.594
  20
266.178
  0
VERTEX
  8
MMIC_Label
  10
-323.965
  20
267.071
  0
VERTEX
  8
MMIC_Label
  10
-323.965
  20
269.39
  0
VERTEX
  8
MMIC_Label
  10
-324.735
  20
269.39
  0
VERTEX
  8
MMIC_Label
  10
-325.789
  20
267.929
  0
VERTEX
  8
MMIC_Label
  10
-326.834
  20
266.482
  0
VERTEX
  8
MMIC_Label
  10
-326.834
  20
262.963
  0
VERTEX
  8
MMIC_Label
  10
-325.846
  20
260.933
  0
VERTEX
  8
MMIC_Label
  10
-325.141
  20
260.554
  0
VERTEX
  8
MMIC_Label
  10
-325.014
  20
260.486
  0
VERTEX
  8
MMIC_Label
  10
-326.039
  20
260.094
  0
VERTEX
  8
MMIC_Label
  10
-326.703
  20
258.804
  0
VERTEX
  8
MMIC_Label
  10
-327.358
  20
257.526
  0
VERTEX
  8
MMIC_Label
  10
-327.358
  20
253.104
  0
VERTEX
  8
MMIC_Label
  10
-326.156
  20
251.407
  0
VERTEX
  8
MMIC_Label
  10
-325.694
  20
250.75
  0
VERTEX
  8
MMIC_Label
  10
-324.94
  20
249.69
  0
VERTEX
  8
MMIC_Label
  10
-323.843
  20
249.69
  0
VERTEX
  8
MMIC_Label
  10
-323.843
  20
251.979
  0
VERTEX
  8
MMIC_Label
  10
-324.255
  20
252.31
  0
VERTEX
  8
MMIC_Label
  10
-324.603
  20
252.589
  0
VERTEX
  8
MMIC_Label
  10
-325.212
  20
254.339
  0
VERTEX
  8
MMIC_Label
  10
-325.212
  20
257.675
  0
VERTEX
  8
MMIC_Label
  10
-324.783
  20
258.304
  0
VERTEX
  8
MMIC_Label
  10
-324.071
  20
259.354
  0
VERTEX
  8
MMIC_Label
  10
-321.886
  20
259.354
  0
VERTEX
  8
MMIC_Label
  10
-321.144
  20
258.291
  0
VERTEX
  8
MMIC_Label
  10
-320.732
  20
257.698
  0
VERTEX
  8
MMIC_Label
  10
-320.732
  20
253.42
  0
VERTEX
  8
MMIC_Label
  10
-321.122
  20
252.855
  0
VERTEX
  8
MMIC_Label
  10
-321.842
  20
251.818
  0
VERTEX
  8
MMIC_Label
  10
-321.842
  20
249.69
  0
VERTEX
  8
MMIC_Label
  10
-320.97
  20
249.69
  0
VERTEX
  8
MMIC_Label
  10
-319.756
  20
251.398
  0
VERTEX
  8
MMIC_Label
  10
-318.552
  20
253.092
  0
SEQEND
  0
POLYLINE
  8
MMIC_Label
  70
1
  66
1
  0
VERTEX
  8
MMIC_Label
  10
-363.9
  20
330.2
  0
VERTEX
  8
MMIC_Label
  10
-348.9
  20
330.2
  0
VERTEX
  8
MMIC_Label
  10
-348.9
  20
315.2
  0
VERTEX
  8
MMIC_Label
  10
-363.9
  20
315.2
  0
SEQEND
  0
POLYLINE
  8
MMIC_Label
  70
1
  66
1
  0
VERTEX
  8
MMIC_Label
  10
342.21
  20
318.05
  0
VERTEX
  8
MMIC_Label
  10
346.17
  20
332.24
  0
VERTEX
  8
MMIC_Label
  10
349.8
  20
318.05
  0
SEQEND
  0
POLYLINE
  8
MMIC_Label
  70
1
  66
1
  0
VERTEX
  8
MMIC_Label
  10
263.69
  20
258.5
  0
VERTEX
  8
MMIC_Label
  10
263.69
  20
291.5
  0
VERTEX
  8
MMIC_Label
  10
280.19
  20
291.5
  0
VERTEX
  8
MMIC_Label
  10
284.15
  20
290.84
  0
VERTEX
  8
MMIC_Label
  10
286.13
  20
289.85
  0
VERTEX
  8
MMIC_Label
  10
287.78
  20
288.86
  0
VERTEX
  8
MMIC_Label
  10
289.76
  20
285.56
  0
VERTEX
  8
MMIC_Label
  10
290.09
  20
283.25
  0
VERTEX
  8
MMIC_Label
  10
289.43
  20
279.95
  0
VERTEX
  8
MMIC_Label
  10
288.44
  20
278.3
  0
VERTEX
  8
MMIC_Label
  10
287.12
  20
276.98
  0
VERTEX
  8
MMIC_Label
  10
285.8
  20
276.32
  0
VERTEX
  8
MMIC_Label
  10
284.15
  20
275.66
  0
VERTEX
  8
MMIC_Label
  10
285.8
  20
275
  0
VERTEX
  8
MMIC_Label
  10
287.45
  20
274.01
  0
VERTEX
  8
MMIC_Label
  10
289.1
  20
272.69
  0
VERTEX
  8
MMIC_Label
  10
291.08
  20
269.39
  0
VERTEX
  8
MMIC_Label
  10
291.08
  20
267.41
  0
VERTEX
  8
MMIC_Label
  10
290.75
  20
265.1
  0
VERTEX
  8
MMIC_Label
  10
290.09
  20
263.12
  0
VERTEX
  8
MMIC_Label
  10
288.77
  20
261.47
  0
VERTEX
  8
MMIC_Label
  10
287.12
  20
260.15
  0
VERTEX
  8
MMIC_Label
  10
285.47
  20
259.16
  0
VERTEX
  8
MMIC_Label
  10
283.49
  20
258.83
  0
VERTEX
  8
MMIC_Label
  10
281.18
  20
258.5
  0
SEQEND
  0
POLYLINE
  8
MMIC_Label
  70
1
  66
1
  0
VERTEX
  8
MMIC_Label
  10
399.56
  20
306.5
  0
VERTEX
  8
MMIC_Label
  10
399.56
  20
311.45
  0
VERTEX
  8
MMIC_Label
  10
406.82
  20
311.45
  0
VERTEX
  8
MMIC_Label
  10
406.82
  20
328.61
  0
VERTEX
  8
MMIC_Label
  10
397.91
  20
328.61
  0
VERTEX
  8
MMIC_Label
  10
397.91
  20
332.9
  0
VERTEX
  8
MMIC_Label
  10
399.56
  20
332.9
  0
VERTEX
  8
MMIC_Label
  10
401.54
  20
333.23
  0
VERTEX
  8
MMIC_Label
  10
403.52
  20
333.89
  0
VERTEX
  8
MMIC_Label
  10
405.17
  20
334.55
  0
VERTEX
  8
MMIC_Label
  10
406.49
  20
335.87
  0
VERTEX
  8
MMIC_Label
  10
407.48
  20
337.52
  0
VERTEX
  8
MMIC_Label
  10
407.81
  20
339.5
  0
VERTEX
  8
MMIC_Label
  10
413.42
  20
339.5
  0
VERTEX
  8
MMIC_Label
  10
413.42
  20
311.45
  0
VERTEX
  8
MMIC_Label
  10
420.68
  20
311.45
  0
VERTEX
  8
MMIC_Label
  10
420.68
  20
306.5
  0
SEQEND
  0
POLYLINE
  8
MMIC_Label
  70
1
  66
1
  0
VERTEX
  8
MMIC_Label
  10
362.09
  20
258.5
  0
VERTEX
  8
MMIC_Label
  10
371.99
  20
275
  0
VERTEX
  8
MMIC_Label
  10
362.09
  20
291.5
  0
VERTEX
  8
MMIC_Label
  10
369.35
  20
291.5
  0
VERTEX
  8
MMIC_Label
  10
375.95
  20
280.61
  0
VERTEX
  8
MMIC_Label
  10
382.55
  20
291.5
  0
VERTEX
  8
MMIC_Label
  10
389.48
  20
291.5
  0
VERTEX
  8
MMIC_Label
  10
379.58
  20
275
  0
VERTEX
  8
MMIC_Label
  10
389.48
  20
258.5
  0
VERTEX
  8
MMIC_Label
  10
382.55
  20
258.5
  0
VERTEX
  8
MMIC_Label
  10
375.95
  20
269.39
  0
VERTEX
  8
MMIC_Label
  10
369.35
  20
258.5
  0
SEQEND
  0
POLYLINE
  8
MMIC_Label
  70
1
  66
1
  0
VERTEX
  8
MMIC_Label
  10
-439.7
  20
288.4
  0
VERTEX
  8
MMIC_Label
  10
-442.4
  20
289.8
  0
VERTEX
  8
MMIC_Label
  10
-443.1
  20
288.5
  0
VERTEX
  8
MMIC_Label
  10
-444.1
  20
287.5
  0
VERTEX
  8
MMIC_Label
  10
-445
  20
287
  0
VERTEX
  8
MMIC_Label
  10
-447.3
  20
287
  0
VERTEX
  8
MMIC_Label
  10
-448.1
  20
287.4
  0
VERTEX
  8
MMIC_Label
  10
-449.1
  20
288.6
  0
VERTEX
  8
MMIC_Label
  10
-449.7
  20
289.7
  0
VERTEX
  8
MMIC_Label
  10
-450.4
  20
291.6
  0
VERTEX
  8
MMIC_Label
  10
-450.4
  20
293
  0
VERTEX
  8
MMIC_Label
  10
-449.7
  20
294.8
  0
VERTEX
  8
MMIC_Label
  10
-449.1
  20
296
  0
VERTEX
  8
MMIC_Label
  10
-448.1
  20
297
  0
VERTEX
  8
MMIC_Label
  10
-447.2
  20
297.5
  0
VERTEX
  8
MMIC_Label
  10
-444.9
  20
297.5
  0
VERTEX
  8
MMIC_Label
  10
-444.2
  20
297
  0
VERTEX
  8
MMIC_Label
  10
-443
  20
296
  0
VERTEX
  8
MMIC_Label
  10
-442.4
  20
294.7
  0
VERTEX
  8
MMIC_Label
  10
-439.7
  20
296.1
  0
VERTEX
  8
MMIC_Label
  10
-440.6
  20
297.8
  0
VERTEX
  8
MMIC_Label
  10
-442.4
  20
299.5
  0
VERTEX
  8
MMIC_Label
  10
-444.1
  20
300.5
  0
VERTEX
  8
MMIC_Label
  10
-447.9
  20
300.5
  0
VERTEX
  8
MMIC_Label
  10
-449.9
  20
299.5
  0
VERTEX
  8
MMIC_Label
  10
-451.6
  20
297.8
  0
VERTEX
  8
MMIC_Label
  10
-452.5
  20
296
  0
VERTEX
  8
MMIC_Label
  10
-453.4
  20
293.6
  0
VERTEX
  8
MMIC_Label
  10
-453.4
  20
291.1
  0
VERTEX
  8
MMIC_Label
  10
-452.5
  20
288.5
  0
VERTEX
  8
MMIC_Label
  10
-451.6
  20
286.9
  0
VERTEX
  8
MMIC_Label
  10
-450
  20
285.1
  0
VERTEX
  8
MMIC_Label
  10
-448.1
  20
284
  0
VERTEX
  8
MMIC_Label
  10
-444.3
  20
284
  0
VERTEX
  8
MMIC_Label
  10
-442.3
  20
285
  0
VERTEX
  8
MMIC_Label
  10
-440.6
  20
286.7
  0
SEQEND
  0
POLYLINE
  8
MMIC_Label
  70
1
  66
1
  0
VERTEX
  8
MMIC_Label
  10
-393.9
  20
300.2
  0
VERTEX
  8
MMIC_Label
  10
-378.9
  20
300.2
  0
VERTEX
  8
MMIC_Label
  10
-378.9
  20
285.2
  0
VERTEX
  8
MMIC_Label
  10
-393.9
  20
285.2
  0
SEQEND
  0
POLYLINE
  8
MMIC_Label
  70
1
  66
1
  0
VERTEX
  8
MMIC_Label
  10
447.16
  20
317.06
  0
VERTEX
  8
MMIC_Label
  10
446.83
  20
315.08
  0
VERTEX
  8
MMIC_Label
  10
446.17
  20
313.76
  0
VERTEX
  8
MMIC_Label
  10
445.18
  20
312.44
  0
VERTEX
  8
MMIC_Label
  10
444.19
  20
311.78
  0
VERTEX
  8
MMIC_Label
  10
442.54
  20
311.12
  0
VERTEX
  8
MMIC_Label
  10
441.22
  20
310.79
  0
VERTEX
  8
MMIC_Label
  10
439.57
  20
310.79
  0
VERTEX
  8
MMIC_Label
  10
437.92
  20
311.12
  0
VERTEX
  8
MMIC_Label
  10
435.28
  20
312.44
  0
VERTEX
  8
MMIC_Label
  10
434.29
  20
313.76
  0
VERTEX
  8
MMIC_Label
  10
433.63
  20
315.08
  0
VERTEX
  8
MMIC_Label
  10
433.3
  20
317.06
  0
VERTEX
  8
MMIC_Label
  10
433.63
  20
318.71
  0
VERTEX
  8
MMIC_Label
  10
434.29
  20
320.03
  0
VERTEX
  8
MMIC_Label
  10
435.28
  20
321.35
  0
VERTEX
  8
MMIC_Label
  10
437.92
  20
322.67
  0
VERTEX
  8
MMIC_Label
  10
439.57
  20
323
  0
VERTEX
  8
MMIC_Label
  10
441.22
  20
323
  0
VERTEX
  8
MMIC_Label
  10
442.54
  20
322.67
  0
VERTEX
  8
MMIC_Label
  10
444.19
  20
322.01
  0
VERTEX
  8
MMIC_Label
  10
445.18
  20
321.35
  0
VERTEX
  8
MMIC_Label
  10
446.17
  20
320.03
  0
VERTEX
  8
MMIC_Label
  10
446.83
  20
318.71
  0
SEQEND
  0
POLYLINE
  8
MMIC_Label
  70
1
  66
1
  0
VERTEX
  8
MMIC_Label
  10
-423.9
  20
330.2
  0
VERTEX
  8
MMIC_Label
  10
-408.9
  20
330.2
  0
VERTEX
  8
MMIC_Label
  10
-408.9
  20
315.2
  0
VERTEX
  8
MMIC_Label
  10
-423.9
  20
315.2
  0
SEQEND
  0
POLYLINE
  8
MMIC_Label
  70
1
  66
1
  0
VERTEX
  8
MMIC_Label
  10
303.09
  20
275.99
  0
VERTEX
  8
MMIC_Label
  10
303.09
  20
285.89
  0
VERTEX
  8
MMIC_Label
  10
314.64
  20
285.89
  0
VERTEX
  8
MMIC_Label
  10
315.63
  20
285.23
  0
VERTEX
  8
MMIC_Label
  10
316.62
  20
284.24
  0
VERTEX
  8
MMIC_Label
  10
317.28
  20
282.92
  0
VERTEX
  8
MMIC_Label
  10
317.61
  20
281.6
  0
VERTEX
  8
MMIC_Label
  10
317.61
  20
280.28
  0
VERTEX
  8
MMIC_Label
  10
317.28
  20
278.96
  0
VERTEX
  8
MMIC_Label
  10
316.62
  20
277.97
  0
VERTEX
  8
MMIC_Label
  10
315.63
  20
276.98
  0
VERTEX
  8
MMIC_Label
  10
314.64
  20
276.32
  0
VERTEX
  8
MMIC_Label
  10
312.99
  20
275.99
  0
SEQEND
  0
POLYLINE
  8
MMIC_Label
  70
1
  66
1
  0
VERTEX
  8
MMIC_Label
  10
270.29
  20
278.3
  0
VERTEX
  8
MMIC_Label
  10
270.29
  20
285.89
  0
VERTEX
  8
MMIC_Label
  10
280.85
  20
285.89
  0
VERTEX
  8
MMIC_Label
  10
282.83
  20
284.57
  0
VERTEX
  8
MMIC_Label
  10
283.16
  20
283.25
  0
VERTEX
  8
MMIC_Label
  10
283.49
  20
282.26
  0
VERTEX
  8
MMIC_Label
  10
283.16
  20
280.94
  0
VERTEX
  8
MMIC_Label
  10
282.83
  20
279.95
  0
VERTEX
  8
MMIC_Label
  10
281.84
  20
278.96
  0
VERTEX
  8
MMIC_Label
  10
280.85
  20
278.63
  0
VERTEX
  8
MMIC_Label
  10
279.53
  20
278.3
  0
SEQEND
  0
POLYLINE
  8
MMIC_Label
  70
1
  66
1
  0
VERTEX
  8
MMIC_Label
  10
-363.9
  20
300.2
  0
VERTEX
  8
MMIC_Label
  10
-348.9
  20
300.2
  0
VERTEX
  8
MMIC_Label
  10
-348.9
  20
285.2
  0
VERTEX
  8
MMIC_Label
  10
-363.9
  20
285.2
  0
SEQEND
  0
POLYLINE
  8
MMIC_Label
  70
1
  66
1
  0
VERTEX
  8
MMIC_Label
  10
-407.828
  20
269.69
  0
VERTEX
  8
MMIC_Label
  10
-409.224
  20
269.69
  0
VERTEX
  8
MMIC_Label
  10
-409.74
  20
268.351
  0
VERTEX
  8
MMIC_Label
  10
-410.923
  20
266.993
  0
VERTEX
  8
MMIC_Label
  10
-412.109
  20
265.632
  0
VERTEX
  8
MMIC_Label
  10
-413.741
  20
264.646
  0
VERTEX
  8
MMIC_Label
  10
-413.741
  20
262.122
  0
VERTEX
  8
MMIC_Label
  10
-413.717
  20
262.106
  0
VERTEX
  8
MMIC_Label
  10
-413.692
  20
262.091
  0
VERTEX
  8
MMIC_Label
  10
-412.701
  20
262.561
  0
VERTEX
  8
MMIC_Label
  10
-411.576
  20
263.409
  0
VERTEX
  8
MMIC_Label
  10
-410.45
  20
264.259
  0
VERTEX
  8
MMIC_Label
  10
-409.932
  20
264.893
  0
VERTEX
  8
MMIC_Label
  10
-409.932
  20
249.49
  0
VERTEX
  8
MMIC_Label
  10
-407.828
  20
249.49
  0
SEQEND
  0
POLYLINE
  8
MMIC_Label
  70
1
  66
1
  0
VERTEX
  8
MMIC_Label
  10
392.5
  20
328.94
  0
VERTEX
  8
MMIC_Label
  10
391.84
  20
331.25
  0
VERTEX
  8
MMIC_Label
  10
390.85
  20
333.56
  0
VERTEX
  8
MMIC_Label
  10
389.53
  20
335.21
  0
VERTEX
  8
MMIC_Label
  10
387.88
  20
336.86
  0
VERTEX
  8
MMIC_Label
  10
386.23
  20
338.18
  0
VERTEX
  8
MMIC_Label
  10
383.92
  20
339.17
  0
VERTEX
  8
MMIC_Label
  10
381.94
  20
339.5
  0
VERTEX
  8
MMIC_Label
  10
376.66
  20
339.5
  0
VERTEX
  8
MMIC_Label
  10
374.35
  20
339.17
  0
VERTEX
  8
MMIC_Label
  10
372.04
  20
337.85
  0
VERTEX
  8
MMIC_Label
  10
370.39
  20
336.53
  0
VERTEX
  8
MMIC_Label
  10
368.74
  20
334.88
  0
VERTEX
  8
MMIC_Label
  10
367.42
  20
332.57
  0
VERTEX
  8
MMIC_Label
  10
366.43
  20
330.59
  0
VERTEX
  8
MMIC_Label
  10
365.77
  20
327.95
  0
VERTEX
  8
MMIC_Label
  10
365.44
  20
325.64
  0
VERTEX
  8
MMIC_Label
  10
365.11
  20
323
  0
VERTEX
  8
MMIC_Label
  10
365.44
  20
320.36
  0
VERTEX
  8
MMIC_Label
  10
365.77
  20
318.05
  0
VERTEX
  8
MMIC_Label
  10
366.43
  20
315.41
  0
VERTEX
  8
MMIC_Label
  10
367.42
  20
313.43
  0
VERTEX
  8
MMIC_Label
  10
368.74
  20
311.12
  0
VERTEX
  8
MMIC_Label
  10
370.39
  20
309.47
  0
VERTEX
  8
MMIC_Label
  10
372.04
  20
308.15
  0
VERTEX
  8
MMIC_Label
  10
374.35
  20
306.83
  0
VERTEX
  8
MMIC_Label
  10
376.66
  20
306.5
  0
VERTEX
  8
MMIC_Label
  10
381.28
  20
306.5
  0
VERTEX
  8
MMIC_Label
  10
383.26
  20
306.83
  0
VERTEX
  8
MMIC_Label
  10
386.56
  20
308.81
  0
VERTEX
  8
MMIC_Label
  10
387.55
  20
310.46
  0
VERTEX
  8
MMIC_Label
  10
388.87
  20
306.5
  0
VERTEX
  8
MMIC_Label
  10
392.5
  20
306.5
  0
VERTEX
  8
MMIC_Label
  10
392.5
  20
323
  0
VERTEX
  8
MMIC_Label
  10
379.96
  20
323
  0
VERTEX
  8
MMIC_Label
  10
379.96
  20
318.05
  0
VERTEX
  8
MMIC_Label
  10
385.9
  20
318.05
  0
VERTEX
  8
MMIC_Label
  10
385.57
  20
316.4
  0
VERTEX
  8
MMIC_Label
  10
384.91
  20
314.75
  0
VERTEX
  8
MMIC_Label
  10
383.92
  20
313.43
  0
VERTEX
  8
MMIC_Label
  10
382.6
  20
312.44
  0
VERTEX
  8
MMIC_Label
  10
381.28
  20
311.78
  0
VERTEX
  8
MMIC_Label
  10
379.3
  20
311.45
  0
VERTEX
  8
MMIC_Label
  10
377.65
  20
311.78
  0
VERTEX
  8
MMIC_Label
  10
376
  20
312.44
  0
VERTEX
  8
MMIC_Label
  10
374.68
  20
313.43
  0
VERTEX
  8
MMIC_Label
  10
373.36
  20
315.08
  0
VERTEX
  8
MMIC_Label
  10
372.7
  20
316.73
  0
VERTEX
  8
MMIC_Label
  10
372.04
  20
318.71
  0
VERTEX
  8
MMIC_Label
  10
371.71
  20
320.69
  0
VERTEX
  8
MMIC_Label
  10
371.71
  20
325.31
  0
VERTEX
  8
MMIC_Label
  10
372.04
  20
327.29
  0
VERTEX
  8
MMIC_Label
  10
372.7
  20
329.27
  0
VERTEX
  8
MMIC_Label
  10
373.36
  20
330.92
  0
VERTEX
  8
MMIC_Label
  10
374.68
  20
332.57
  0
VERTEX
  8
MMIC_Label
  10
376
  20
333.56
  0
VERTEX
  8
MMIC_Label
  10
377.65
  20
334.22
  0
VERTEX
  8
MMIC_Label
  10
379.3
  20
334.55
  0
VERTEX
  8
MMIC_Label
  10
381.28
  20
334.22
  0
VERTEX
  8
MMIC_Label
  10
382.93
  20
333.23
  0
VERTEX
  8
MMIC_Label
  10
384.25
  20
332.24
  0
VERTEX
  8
MMIC_Label
  10
385.24
  20
330.59
  0
VERTEX
  8
MMIC_Label
  10
385.9
  20
328.94
  0
SEQEND
  0
POLYLINE
  8
MMIC_Label
  70
1
  66
1
  0
VERTEX
  8
MMIC_Label
  10
-416.161
  20
249.59
  0
VERTEX
  8
MMIC_Label
  10
-420.34
  20
257.226
  0
VERTEX
  8
MMIC_Label
  10
-416.457
  20
264.019
  0
VERTEX
  8
MMIC_Label
  10
-418.732
  20
264.019
  0
VERTEX
  8
MMIC_Label
  10
-420.625
  20
260.609
  0
VERTEX
  8
MMIC_Label
  10
-421.017
  20
259.916
  0
VERTEX
  8
MMIC_Label
  10
-421.482
  20
259.019
  0
VERTEX
  8
MMIC_Label
  10
-421.779
  20
259.672
  0
VERTEX
  8
MMIC_Label
  10
-422.265
  20
260.636
  0
VERTEX
  8
MMIC_Label
  10
-423.99
  20
264.019
  0
VERTEX
  8
MMIC_Label
  10
-426.37
  20
264.019
  0
VERTEX
  8
MMIC_Label
  10
-422.572
  20
257.09
  0
VERTEX
  8
MMIC_Label
  10
-426.677
  20
249.59
  0
VERTEX
  8
MMIC_Label
  10
-424.371
  20
249.59
  0
VERTEX
  8
MMIC_Label
  10
-421.419
  20
255.283
  0
VERTEX
  8
MMIC_Label
  10
-420.805
  20
254.074
  0
VERTEX
  8
MMIC_Label
  10
-418.499
  20
249.59
  0
SEQEND
  0
POLYLINE
  8
MMIC_Label
  70
1
  66
1
  0
VERTEX
  8
MMIC_Label
  10
-375.618
  20
252.041
  0
VERTEX
  8
MMIC_Label
  10
-382.183
  20
252.041
  0
VERTEX
  8
MMIC_Label
  10
-381.967
  20
252.562
  0
VERTEX
  8
MMIC_Label
  10
-381.132
  20
253.862
  0
VERTEX
  8
MMIC_Label
  10
-379.642
  20
255.709
  0
VERTEX
  8
MMIC_Label
  10
-377.853
  20
257.943
  0
VERTEX
  8
MMIC_Label
  10
-377.081
  20
259.227
  0
VERTEX
  8
MMIC_Label
  10
-376.307
  20
260.515
  0
VERTEX
  8
MMIC_Label
  10
-375.972
  20
261.683
  0
VERTEX
  8
MMIC_Label
  10
-375.636
  20
262.85
  0
VERTEX
  8
MMIC_Label
  10
-375.636
  20
266.443
  0
VERTEX
  8
MMIC_Label
  10
-376.786
  20
268.058
  0
VERTEX
  8
MMIC_Label
  10
-377.948
  20
269.69
  0
VERTEX
  8
MMIC_Label
  10
-381.913
  20
269.69
  0
VERTEX
  8
MMIC_Label
  10
-384.244
  20
266.679
  0
VERTEX
  8
MMIC_Label
  10
-384.425
  20
263.744
  0
VERTEX
  8
MMIC_Label
  10
-382.534
  20
263.457
  0
VERTEX
  8
MMIC_Label
  10
-382.526
  20
263.464
  0
VERTEX
  8
MMIC_Label
  10
-382.518
  20
263.47
  0
VERTEX
  8
MMIC_Label
  10
-382.509
  20
265.415
  0
VERTEX
  8
MMIC_Label
  10
-381.809
  20
266.45
  0
VERTEX
  8
MMIC_Label
  10
-381.418
  20
267.026
  0
VERTEX
  8
MMIC_Label
  10
-378.587
  20
267.026
  0
VERTEX
  8
MMIC_Label
  10
-377.878
  20
266.02
  0
VERTEX
  8
MMIC_Label
  10
-377.878
  20
262.068
  0
VERTEX
  8
MMIC_Label
  10
-379.068
  20
259.672
  0
VERTEX
  8
MMIC_Label
  10
-381.259
  20
257.018
  0
VERTEX
  8
MMIC_Label
  10
-381.26
  20
257.018
  0
VERTEX
  8
MMIC_Label
  10
-382.682
  20
255.299
  0
VERTEX
  8
MMIC_Label
  10
-383.437
  20
253.988
  0
VERTEX
  8
MMIC_Label
  10
-384.194
  20
252.671
  0
VERTEX
  8
MMIC_Label
  10
-384.536
  20
251.315
  0
VERTEX
  8
MMIC_Label
  10
-384.752
  20
250.485
  0
VERTEX
  8
MMIC_Label
  10
-384.731
  20
249.49
  0
VERTEX
  8
MMIC_Label
  10
-375.618
  20
249.49
  0
SEQEND
  0
POLYLINE
  8
MMIC_Label
  70
1
  66
1
  0
VERTEX
  8
MMIC_Label
  10
-303.9
  20
330.2
  0
VERTEX
  8
MMIC_Label
  10
-288.9
  20
330.2
  0
VERTEX
  8
MMIC_Label
  10
-288.9
  20
315.2
  0
VERTEX
  8
MMIC_Label
  10
-303.9
  20
315.2
  0
SEQEND
  0
POLYLINE
  8
MMIC_Label
  70
1
  66
1
  0
VERTEX
  8
MMIC_Label
  10
296.49
  20
258.5
  0
VERTEX
  8
MMIC_Label
  10
296.49
  20
291.5
  0
VERTEX
  8
MMIC_Label
  10
315.3
  20
291.5
  0
VERTEX
  8
MMIC_Label
  10
317.28
  20
291.17
  0
VERTEX
  8
MMIC_Label
  10
318.93
  20
290.51
  0
VERTEX
  8
MMIC_Label
  10
320.58
  20
289.52
  0
VERTEX
  8
MMIC_Label
  10
321.9
  20
288.2
  0
VERTEX
  8
MMIC_Label
  10
322.89
  20
286.55
  0
VERTEX
  8
MMIC_Label
  10
323.55
  20
284.9
  0
VERTEX
  8
MMIC_Label
  10
324.21
  20
280.94
  0
VERTEX
  8
MMIC_Label
  10
323.88
  20
278.96
  0
VERTEX
  8
MMIC_Label
  10
323.55
  20
277.31
  0
VERTEX
  8
MMIC_Label
  10
322.89
  20
275.33
  0
VERTEX
  8
MMIC_Label
  10
321.9
  20
274.01
  0
VERTEX
  8
MMIC_Label
  10
320.58
  20
272.69
  0
VERTEX
  8
MMIC_Label
  10
318.93
  20
271.37
  0
VERTEX
  8
MMIC_Label
  10
317.28
  20
270.71
  0
VERTEX
  8
MMIC_Label
  10
303.09
  20
270.71
  0
VERTEX
  8
MMIC_Label
  10
303.09
  20
258.5
  0
SEQEND
  0
POLYLINE
  8
MMIC_Label
  70
1
  66
1
  0
VERTEX
  8
MMIC_Label
  10
198.09
  20
258.5
  0
VERTEX
  8
MMIC_Label
  10
207.99
  20
291.5
  0
VERTEX
  8
MMIC_Label
  10
215.58
  20
291.5
  0
VERTEX
  8
MMIC_Label
  10
225.48
  20
258.5
  0
VERTEX
  8
MMIC_Label
  10
218.55
  20
258.5
  0
VERTEX
  8
MMIC_Label
  10
216.9
  20
265.1
  0
VERTEX
  8
MMIC_Label
  10
207
  20
265.1
  0
VERTEX
  8
MMIC_Label
  10
205.35
  20
258.5
  0
SEQEND
  0
POLYLINE
  8
MMIC_Label
  70
1
  66
1
  0
VERTEX
  8
MMIC_Label
  10
-387.14
  20
249.59
  0
VERTEX
  8
MMIC_Label
  10
-391.319
  20
257.226
  0
VERTEX
  8
MMIC_Label
  10
-387.436
  20
264.019
  0
VERTEX
  8
MMIC_Label
  10
-390.261
  20
264.019
  0
VERTEX
  8
MMIC_Label
  10
-392.154
  20
260.609
  0
VERTEX
  8
MMIC_Label
  10
-392.546
  20
259.916
  0
VERTEX
  8
MMIC_Label
  10
-393.011
  20
259.019
  0
VERTEX
  8
MMIC_Label
  10
-393.308
  20
259.672
  0
VERTEX
  8
MMIC_Label
  10
-393.794
  20
260.636
  0
VERTEX
  8
MMIC_Label
  10
-395.519
  20
264.019
  0
VERTEX
  8
MMIC_Label
  10
-398.449
  20
264.019
  0
VERTEX
  8
MMIC_Label
  10
-394.651
  20
257.09
  0
VERTEX
  8
MMIC_Label
  10
-398.756
  20
249.59
  0
VERTEX
  8
MMIC_Label
  10
-395.9
  20
249.59
  0
VERTEX
  8
MMIC_Label
  10
-392.948
  20
255.283
  0
VERTEX
  8
MMIC_Label
  10
-392.334
  20
254.074
  0
VERTEX
  8
MMIC_Label
  10
-390.028
  20
249.59
  0
SEQEND
  0
POLYLINE
  8
MMIC_Label
  70
1
  66
1
  0
VERTEX
  8
MMIC_Label
  10
427.69
  20
258.5
  0
VERTEX
  8
MMIC_Label
  10
437.59
  20
275
  0
VERTEX
  8
MMIC_Label
  10
427.69
  20
291.5
  0
VERTEX
  8
MMIC_Label
  10
434.95
  20
291.5
  0
VERTEX
  8
MMIC_Label
  10
441.55
  20
280.61
  0
VERTEX
  8
MMIC_Label
  10
448.15
  20
291.5
  0
VERTEX
  8
MMIC_Label
  10
455.08
  20
291.5
  0
VERTEX
  8
MMIC_Label
  10
445.18
  20
275
  0
VERTEX
  8
MMIC_Label
  10
455.08
  20
258.5
  0
VERTEX
  8
MMIC_Label
  10
448.15
  20
258.5
  0
VERTEX
  8
MMIC_Label
  10
441.55
  20
269.39
  0
VERTEX
  8
MMIC_Label
  10
434.95
  20
258.5
  0
SEQEND
  0
POLYLINE
  8
MMIC_Label
  70
1
  66
1
  0
VERTEX
  8
MMIC_Label
  10
-345.497
  20
256.53
  0
VERTEX
  8
MMIC_Label
  10
-352.807
  20
256.53
  0
VERTEX
  8
MMIC_Label
  10
-349.408
  20
263.82
  0
VERTEX
  8
MMIC_Label
  10
-349.16
  20
263.82
  0
VERTEX
  8
MMIC_Label
  10
-349.16
  20
258.99
  0
VERTEX
  8
MMIC_Label
  10
-346.641
  20
258.99
  0
VERTEX
  8
MMIC_Label
  10
-346.641
  20
269.69
  0
VERTEX
  8
MMIC_Label
  10
-348.82
  20
269.69
  0
VERTEX
  8
MMIC_Label
  10
-353.354
  20
260.103
  0
VERTEX
  8
MMIC_Label
  10
-354.986
  20
256.652
  0
VERTEX
  8
MMIC_Label
  10
-354.986
  20
254.279
  0
VERTEX
  8
MMIC_Label
  10
-349.83
  20
254.279
  0
VERTEX
  8
MMIC_Label
  10
-349.83
  20
249.49
  0
VERTEX
  8
MMIC_Label
  10
-347.311
  20
249.49
  0
VERTEX
  8
MMIC_Label
  10
-347.311
  20
254.279
  0
VERTEX
  8
MMIC_Label
  10
-345.497
  20
254.279
  0
SEQEND
  0
POLYLINE
  8
MMIC_Label
  70
1
  66
1
  0
VERTEX
  8
MMIC_Label
  10
-440.3
  20
327.4
  0
VERTEX
  8
MMIC_Label
  10
-441.4
  20
329.3
  0
VERTEX
  8
MMIC_Label
  10
-442.6
  20
330.3
  0
VERTEX
  8
MMIC_Label
  10
-445.2
  20
331.2
  0
VERTEX
  8
MMIC_Label
  10
-453.4
  20
331.2
  0
VERTEX
  8
MMIC_Label
  10
-453.4
  20
314.7
  0
VERTEX
  8
MMIC_Label
  10
-450.4
  20
314.7
  0
VERTEX
  8
MMIC_Label
  10
-450.4
  20
328.2
  0
VERTEX
  8
MMIC_Label
  10
-445.7
  20
328.2
  0
VERTEX
  8
MMIC_Label
  10
-444.1
  20
327.6
  0
VERTEX
  8
MMIC_Label
  10
-443.8
  20
327.4
  0
VERTEX
  8
MMIC_Label
  10
-443.3
  20
326.6
  0
VERTEX
  8
MMIC_Label
  10
-443.3
  20
326
  0
VERTEX
  8
MMIC_Label
  10
-444
  20
324.7
  0
VERTEX
  8
MMIC_Label
  10
-444.2
  20
324.6
  0
VERTEX
  8
MMIC_Label
  10
-445.8
  20
324
  0
VERTEX
  8
MMIC_Label
  10
-448.9
  20
324
  0
VERTEX
  8
MMIC_Label
  10
-448.9
  20
321
  0
VERTEX
  8
MMIC_Label
  10
-447.6
  20
321
  0
VERTEX
  8
MMIC_Label
  10
-443.1
  20
313.9
  0
VERTEX
  8
MMIC_Label
  10
-440.6
  20
315.5
  0
VERTEX
  8
MMIC_Label
  10
-444.3
  20
321.4
  0
VERTEX
  8
MMIC_Label
  10
-442.5
  20
321.9
  0
VERTEX
  8
MMIC_Label
  10
-441.5
  20
323
  0
VERTEX
  8
MMIC_Label
  10
-440.3
  20
325.3
  0
SEQEND
  0
POLYLINE
  8
MMIC_Label
  70
1
  66
1
  0
VERTEX
  8
MMIC_Label
  10
258.28
  20
280.94
  0
VERTEX
  8
MMIC_Label
  10
257.62
  20
283.25
  0
VERTEX
  8
MMIC_Label
  10
256.63
  20
285.56
  0
VERTEX
  8
MMIC_Label
  10
255.31
  20
287.21
  0
VERTEX
  8
MMIC_Label
  10
253.66
  20
288.86
  0
VERTEX
  8
MMIC_Label
  10
252.01
  20
290.18
  0
VERTEX
  8
MMIC_Label
  10
249.7
  20
291.17
  0
VERTEX
  8
MMIC_Label
  10
247.72
  20
291.5
  0
VERTEX
  8
MMIC_Label
  10
242.44
  20
291.5
  0
VERTEX
  8
MMIC_Label
  10
240.13
  20
291.17
  0
VERTEX
  8
MMIC_Label
  10
237.82
  20
289.85
  0
VERTEX
  8
MMIC_Label
  10
236.17
  20
288.53
  0
VERTEX
  8
MMIC_Label
  10
234.52
  20
286.88
  0
VERTEX
  8
MMIC_Label
  10
233.2
  20
284.57
  0
VERTEX
  8
MMIC_Label
  10
232.21
  20
282.59
  0
VERTEX
  8
MMIC_Label
  10
231.55
  20
279.95
  0
VERTEX
  8
MMIC_Label
  10
231.22
  20
277.64
  0
VERTEX
  8
MMIC_Label
  10
230.89
  20
275
  0
VERTEX
  8
MMIC_Label
  10
231.22
  20
272.36
  0
VERTEX
  8
MMIC_Label
  10
231.55
  20
270.05
  0
VERTEX
  8
MMIC_Label
  10
232.21
  20
267.41
  0
VERTEX
  8
MMIC_Label
  10
233.2
  20
265.43
  0
VERTEX
  8
MMIC_Label
  10
234.52
  20
263.12
  0
VERTEX
  8
MMIC_Label
  10
236.17
  20
261.47
  0
VERTEX
  8
MMIC_Label
  10
237.82
  20
260.15
  0
VERTEX
  8
MMIC_Label
  10
240.13
  20
258.83
  0
VERTEX
  8
MMIC_Label
  10
242.44
  20
258.5
  0
VERTEX
  8
MMIC_Label
  10
247.06
  20
258.5
  0
VERTEX
  8
MMIC_Label
  10
249.04
  20
258.83
  0
VERTEX
  8
MMIC_Label
  10
252.34
  20
260.81
  0
VERTEX
  8
MMIC_Label
  10
253.33
  20
262.46
  0
VERTEX
  8
MMIC_Label
  10
254.65
  20
258.5
  0
VERTEX
  8
MMIC_Label
  10
258.28
  20
258.5
  0
VERTEX
  8
MMIC_Label
  10
258.28
  20
275
  0
VERTEX
  8
MMIC_Label
  10
245.74
  20
275
  0
VERTEX
  8
MMIC_Label
  10
245.74
  20
270.05
  0
VERTEX
  8
MMIC_Label
  10
251.68
  20
270.05
  0
VERTEX
  8
MMIC_Label
  10
251.35
  20
268.4
  0
VERTEX
  8
MMIC_Label
  10
250.69
  20
266.75
  0
VERTEX
  8
MMIC_Label
  10
249.7
  20
265.43
  0
VERTEX
  8
MMIC_Label
  10
248.38
  20
264.44
  0
VERTEX
  8
MMIC_Label
  10
247.06
  20
263.78
  0
VERTEX
  8
MMIC_Label
  10
245.08
  20
263.45
  0
VERTEX
  8
MMIC_Label
  10
243.43
  20
263.78
  0
VERTEX
  8
MMIC_Label
  10
241.78
  20
264.44
  0
VERTEX
  8
MMIC_Label
  10
240.46
  20
265.43
  0
VERTEX
  8
MMIC_Label
  10
239.14
  20
267.08
  0
VERTEX
  8
MMIC_Label
  10
238.48
  20
268.73
  0
VERTEX
  8
MMIC_Label
  10
237.82
  20
270.71
  0
VERTEX
  8
MMIC_Label
  10
237.49
  20
272.69
  0
VERTEX
  8
MMIC_Label
  10
237.49
  20
277.31
  0
VERTEX
  8
MMIC_Label
  10
237.82
  20
279.29
  0
VERTEX
  8
MMIC_Label
  10
238.48
  20
281.27
  0
VERTEX
  8
MMIC_Label
  10
239.14
  20
282.92
  0
VERTEX
  8
MMIC_Label
  10
240.46
  20
284.57
  0
VERTEX
  8
MMIC_Label
  10
241.78
  20
285.56
  0
VERTEX
  8
MMIC_Label
  10
243.43
  20
286.22
  0
VERTEX
  8
MMIC_Label
  10
245.08
  20
286.55
  0
VERTEX
  8
MMIC_Label
  10
247.06
  20
286.22
  0
VERTEX
  8
MMIC_Label
  10
248.71
  20
285.23
  0
VERTEX
  8
MMIC_Label
  10
250.03
  20
284.24
  0
VERTEX
  8
MMIC_Label
  10
251.02
  20
282.59
  0
VERTEX
  8
MMIC_Label
  10
251.68
  20
280.94
  0
SEQEND
  0
POLYLINE
  8
MMIC_Label
  70
1
  66
1
  0
VERTEX
  8
MMIC_Label
  10
329.29
  20
258.5
  0
VERTEX
  8
MMIC_Label
  10
329.29
  20
291.5
  0
VERTEX
  8
MMIC_Label
  10
356.68
  20
291.5
  0
VERTEX
  8
MMIC_Label
  10
356.68
  20
285.89
  0
VERTEX
  8
MMIC_Label
  10
335.89
  20
285.89
  0
VERTEX
  8
MMIC_Label
  10
335.89
  20
277.64
  0
VERTEX
  8
MMIC_Label
  10
354.04
  20
277.64
  0
VERTEX
  8
MMIC_Label
  10
354.04
  20
272.36
  0
VERTEX
  8
MMIC_Label
  10
335.89
  20
272.36
  0
VERTEX
  8
MMIC_Label
  10
335.89
  20
258.5
  0
SEQEND
  0
POLYLINE
  8
MMIC_Label
  70
1
  66
1
  0
VERTEX
  8
MMIC_Label
  10
-302.028
  20
249.59
  0
VERTEX
  8
MMIC_Label
  10
-306.207
  20
257.226
  0
VERTEX
  8
MMIC_Label
  10
-302.324
  20
264.019
  0
VERTEX
  8
MMIC_Label
  10
-305.149
  20
264.019
  0
VERTEX
  8
MMIC_Label
  10
-307.042
  20
260.609
  0
VERTEX
  8
MMIC_Label
  10
-307.434
  20
259.916
  0
VERTEX
  8
MMIC_Label
  10
-307.899
  20
259.019
  0
VERTEX
  8
MMIC_Label
  10
-308.196
  20
259.672
  0
VERTEX
  8
MMIC_Label
  10
-308.682
  20
260.636
  0
VERTEX
  8
MMIC_Label
  10
-310.407
  20
264.019
  0
VERTEX
  8
MMIC_Label
  10
-313.337
  20
264.019
  0
VERTEX
  8
MMIC_Label
  10
-309.539
  20
257.09
  0
VERTEX
  8
MMIC_Label
  10
-313.644
  20
249.59
  0
VERTEX
  8
MMIC_Label
  10
-310.788
  20
249.59
  0
VERTEX
  8
MMIC_Label
  10
-307.836
  20
255.283
  0
VERTEX
  8
MMIC_Label
  10
-307.222
  20
254.074
  0
VERTEX
  8
MMIC_Label
  10
-304.916
  20
249.59
  0
SEQEND
  0
POLYLINE
  8
MMIC_Label
  70
1
  66
1
  0
VERTEX
  8
MMIC_Label
  10
-463.9
  20
275.1
  0
VERTEX
  8
MMIC_Label
  10
-463.8
  20
275.1
  0
VERTEX
  8
MMIC_Label
  10
-463.8
  20
275.2
  0
VERTEX
  8
MMIC_Label
  10
-463.9
  20
275.2
  0
SEQEND
  0
POLYLINE
  8
MMIC_Label
  70
1
  66
1
  0
VERTEX
  8
MMIC_Label
  10
-328.728
  20
249.59
  0
VERTEX
  8
MMIC_Label
  10
-332.907
  20
257.226
  0
VERTEX
  8
MMIC_Label
  10
-329.024
  20
264.019
  0
VERTEX
  8
MMIC_Label
  10
-331.849
  20
264.019
  0
VERTEX
  8
MMIC_Label
  10
-333.742
  20
260.609
  0
VERTEX
  8
MMIC_Label
  10
-334.134
  20
259.916
  0
VERTEX
  8
MMIC_Label
  10
-334.599
  20
259.019
  0
VERTEX
  8
MMIC_Label
  10
-334.896
  20
259.672
  0
VERTEX
  8
MMIC_Label
  10
-335.382
  20
260.636
  0
VERTEX
  8
MMIC_Label
  10
-337.107
  20
264.019
  0
VERTEX
  8
MMIC_Label
  10
-340.037
  20
264.019
  0
VERTEX
  8
MMIC_Label
  10
-336.239
  20
257.09
  0
VERTEX
  8
MMIC_Label
  10
-340.344
  20
249.59
  0
VERTEX
  8
MMIC_Label
  10
-337.488
  20
249.59
  0
VERTEX
  8
MMIC_Label
  10
-334.536
  20
255.283
  0
VERTEX
  8
MMIC_Label
  10
-333.922
  20
254.074
  0
VERTEX
  8
MMIC_Label
  10
-331.616
  20
249.59
  0
SEQEND
  0
POLYLINE
  8
MMIC_Label
  70
1
  66
1
  0
VERTEX
  8
MMIC_Label
  10
207.99
  20
270.05
  0
VERTEX
  8
MMIC_Label
  10
211.95
  20
284.24
  0
VERTEX
  8
MMIC_Label
  10
215.58
  20
270.05
  0
SEQEND
  0
POLYLINE
  8
MMIC_Label
  70
1
  66
1
  0
VERTEX
  8
MMIC_Label
  10
452.11
  20
332.24
  0
VERTEX
  8
MMIC_Label
  10
451.12
  20
334.22
  0
VERTEX
  8
MMIC_Label
  10
449.8
  20
336.2
  0
VERTEX
  8
MMIC_Label
  10
448.15
  20
337.52
  0
VERTEX
  8
MMIC_Label
  10
444.19
  20
339.5
  0
VERTEX
  8
MMIC_Label
  10
437.26
  20
339.5
  0
VERTEX
  8
MMIC_Label
  10
434.95
  20
339.17
  0
VERTEX
  8
MMIC_Label
  10
432.64
  20
337.85
  0
VERTEX
  8
MMIC_Label
  10
430.66
  20
336.53
  0
VERTEX
  8
MMIC_Label
  10
429.34
  20
334.88
  0
VERTEX
  8
MMIC_Label
  10
428.02
  20
332.57
  0
VERTEX
  8
MMIC_Label
  10
427.03
  20
330.59
  0
VERTEX
  8
MMIC_Label
  10
426.04
  20
327.95
  0
VERTEX
  8
MMIC_Label
  10
425.71
  20
325.64
  0
VERTEX
  8
MMIC_Label
  10
425.71
  20
320.36
  0
VERTEX
  8
MMIC_Label
  10
426.04
  20
318.05
  0
VERTEX
  8
MMIC_Label
  10
427.03
  20
315.41
  0
VERTEX
  8
MMIC_Label
  10
428.02
  20
313.43
  0
VERTEX
  8
MMIC_Label
  10
429.34
  20
311.12
  0
VERTEX
  8
MMIC_Label
  10
430.66
  20
309.47
  0
VERTEX
  8
MMIC_Label
  10
432.64
  20
308.15
  0
VERTEX
  8
MMIC_Label
  10
434.95
  20
306.83
  0
VERTEX
  8
MMIC_Label
  10
437.26
  20
306.5
  0
VERTEX
  8
MMIC_Label
  10
444.19
  20
306.5
  0
VERTEX
  8
MMIC_Label
  10
446.17
  20
307.16
  0
VERTEX
  8
MMIC_Label
  10
448.15
  20
308.48
  0
VERTEX
  8
MMIC_Label
  10
449.8
  20
309.8
  0
VERTEX
  8
MMIC_Label
  10
451.12
  20
311.12
  0
VERTEX
  8
MMIC_Label
  10
452.44
  20
313.1
  0
VERTEX
  8
MMIC_Label
  10
453.1
  20
315.08
  0
VERTEX
  8
MMIC_Label
  10
453.1
  20
317.39
  0
VERTEX
  8
MMIC_Label
  10
452.77
  20
319.7
  0
VERTEX
  8
MMIC_Label
  10
452.11
  20
322.01
  0
VERTEX
  8
MMIC_Label
  10
449.47
  20
325.31
  0
VERTEX
  8
MMIC_Label
  10
445.51
  20
327.29
  0
VERTEX
  8
MMIC_Label
  10
443.2
  20
327.95
  0
VERTEX
  8
MMIC_Label
  10
441.22
  20
327.95
  0
VERTEX
  8
MMIC_Label
  10
438.58
  20
327.62
  0
VERTEX
  8
MMIC_Label
  10
436.27
  20
326.96
  0
VERTEX
  8
MMIC_Label
  10
434.29
  20
325.64
  0
VERTEX
  8
MMIC_Label
  10
432.31
  20
323.99
  0
VERTEX
  8
MMIC_Label
  10
432.31
  20
325.97
  0
VERTEX
  8
MMIC_Label
  10
432.64
  20
327.62
  0
VERTEX
  8
MMIC_Label
  10
433.3
  20
329.6
  0
VERTEX
  8
MMIC_Label
  10
435.28
  20
332.9
  0
VERTEX
  8
MMIC_Label
  10
436.6
  20
333.89
  0
VERTEX
  8
MMIC_Label
  10
438.58
  20
334.88
  0
VERTEX
  8
MMIC_Label
  10
440.56
  20
335.21
  0
VERTEX
  8
MMIC_Label
  10
442.21
  20
334.88
  0
VERTEX
  8
MMIC_Label
  10
444.85
  20
333.56
  0
VERTEX
  8
MMIC_Label
  10
446.17
  20
332.24
  0
SEQEND
  0
POLYLINE
  8
MMIC_Label
  70
1
  66
1
  0
VERTEX
  8
MMIC_Label
  10
332.31
  20
306.5
  0
VERTEX
  8
MMIC_Label
  10
342.21
  20
339.5
  0
VERTEX
  8
MMIC_Label
  10
349.8
  20
339.5
  0
VERTEX
  8
MMIC_Label
  10
359.7
  20
306.5
  0
VERTEX
  8
MMIC_Label
  10
352.77
  20
306.5
  0
VERTEX
  8
MMIC_Label
  10
351.12
  20
313.1
  0
VERTEX
  8
MMIC_Label
  10
341.22
  20
313.1
  0
VERTEX
  8
MMIC_Label
  10
339.57
  20
306.5
  0
SEQEND
  0
POLYLINE
  8
MMIC_Label
  70
1
  66
1
  0
VERTEX
  8
MMIC_Label
  10
-278.559
  20
255.023
  0
VERTEX
  8
MMIC_Label
  10
-279.155
  20
259.497
  0
VERTEX
  8
MMIC_Label
  10
-279.158
  20
259.506
  0
VERTEX
  8
MMIC_Label
  10
-281.066
  20
262.56
  0
VERTEX
  8
MMIC_Label
  10
-285.747
  20
262.56
  0
VERTEX
  8
MMIC_Label
  10
-285.747
  20
259.79
  0
VERTEX
  8
MMIC_Label
  10
-282.295
  20
259.79
  0
VERTEX
  8
MMIC_Label
  10
-281.852
  20
259.291
  0
VERTEX
  8
MMIC_Label
  10
-281.553
  20
258.814
  0
VERTEX
  8
MMIC_Label
  10
-281.074
  20
255.231
  0
VERTEX
  8
MMIC_Label
  10
-282.066
  20
252.915
  0
VERTEX
  8
MMIC_Label
  10
-282.239
  20
252.656
  0
VERTEX
  8
MMIC_Label
  10
-283.474
  20
252.001
  0
VERTEX
  8
MMIC_Label
  10
-285.323
  20
252.085
  0
VERTEX
  8
MMIC_Label
  10
-286.557
  20
252.332
  0
VERTEX
  8
MMIC_Label
  10
-287.363
  20
252.869
  0
VERTEX
  8
MMIC_Label
  10
-288.147
  20
254.516
  0
VERTEX
  8
MMIC_Label
  10
-288.147
  20
266.43
  0
VERTEX
  8
MMIC_Label
  10
-288.092
  20
266.867
  0
VERTEX
  8
MMIC_Label
  10
-287.178
  20
267.934
  0
VERTEX
  8
MMIC_Label
  10
-286.829
  20
268.167
  0
VERTEX
  8
MMIC_Label
  10
-285.554
  20
268.507
  0
VERTEX
  8
MMIC_Label
  10
-284.967
  20
268.58
  0
VERTEX
  8
MMIC_Label
  10
-283.059
  20
268.262
  0
VERTEX
  8
MMIC_Label
  10
-282.552
  20
267.691
  0
VERTEX
  8
MMIC_Label
  10
-282.179
  20
267.094
  0
VERTEX
  8
MMIC_Label
  10
-281.917
  20
266.047
  0
VERTEX
  8
MMIC_Label
  10
-279.758
  20
266.588
  0
VERTEX
  8
MMIC_Label
  10
-280.211
  20
268.402
  0
VERTEX
  8
MMIC_Label
  10
-280.24
  20
268.448
  0
VERTEX
  8
MMIC_Label
  10
-282.193
  20
270.644
  0
VERTEX
  8
MMIC_Label
  10
-284.927
  20
271.1
  0
VERTEX
  8
MMIC_Label
  10
-285.94
  20
270.973
  0
VERTEX
  8
MMIC_Label
  10
-287.943
  20
270.439
  0
VERTEX
  8
MMIC_Label
  10
-290.704
  20
267.22
  0
VERTEX
  8
MMIC_Label
  10
-290.787
  20
266.55
  0
VERTEX
  8
MMIC_Label
  10
-290.787
  20
254.064
  0
VERTEX
  8
MMIC_Label
  10
-289.13
  20
250.583
  0
VERTEX
  8
MMIC_Label
  10
-287.757
  20
249.668
  0
VERTEX
  8
MMIC_Label
  10
-285.991
  20
249.315
  0
VERTEX
  8
MMIC_Label
  10
-282.641
  20
249.163
  0
VERTEX
  8
MMIC_Label
  10
-281.128
  20
249.962
  0
VERTEX
  8
MMIC_Label
  10
-280.008
  20
251.645
  0
SEQEND
  0
POLYLINE
  8
MMIC_Label
  70
1
  66
1
  0
VERTEX
  8
MMIC_Label
  10
-433.9
  20
339.5
  0
VERTEX
  8
MMIC_Label
  10
-278.9
  20
339.5
  0
VERTEX
  8
MMIC_Label
  10
-278.9
  20
275.1
  0
VERTEX
  8
MMIC_Label
  10
-433.9
  20
275.1
  0
SEQEND
  0
POLYLINE
  8
MMIC_Label
  70
1
  66
1
  0
VERTEX
  8
MMIC_Label
  10
394.89
  20
258.5
  0
VERTEX
  8
MMIC_Label
  10
404.79
  20
275
  0
VERTEX
  8
MMIC_Label
  10
394.89
  20
291.5
  0
VERTEX
  8
MMIC_Label
  10
402.15
  20
291.5
  0
VERTEX
  8
MMIC_Label
  10
408.75
  20
280.61
  0
VERTEX
  8
MMIC_Label
  10
415.35
  20
291.5
  0
VERTEX
  8
MMIC_Label
  10
422.28
  20
291.5
  0
VERTEX
  8
MMIC_Label
  10
412.38
  20
275
  0
VERTEX
  8
MMIC_Label
  10
422.28
  20
258.5
  0
VERTEX
  8
MMIC_Label
  10
415.35
  20
258.5
  0
VERTEX
  8
MMIC_Label
  10
408.75
  20
269.39
  0
VERTEX
  8
MMIC_Label
  10
402.15
  20
258.5
  0
SEQEND
  0
POLYLINE
  8
MMIC_Label
  70
1
  66
1
  0
VERTEX
  8
MMIC_Label
  10
-293.875
  20
269.69
  0
VERTEX
  8
MMIC_Label
  10
-296.291
  20
269.69
  0
VERTEX
  8
MMIC_Label
  10
-297.617
  20
266.251
  0
VERTEX
  8
MMIC_Label
  10
-298.156
  20
265.632
  0
VERTEX
  8
MMIC_Label
  10
-299.788
  20
264.646
  0
VERTEX
  8
MMIC_Label
  10
-299.788
  20
262.122
  0
VERTEX
  8
MMIC_Label
  10
-299.764
  20
262.106
  0
VERTEX
  8
MMIC_Label
  10
-299.739
  20
262.091
  0
VERTEX
  8
MMIC_Label
  10
-298.748
  20
262.561
  0
VERTEX
  8
MMIC_Label
  10
-297.623
  20
263.409
  0
VERTEX
  8
MMIC_Label
  10
-297.619
  20
263.412
  0
VERTEX
  8
MMIC_Label
  10
-297.337
  20
263.757
  0
VERTEX
  8
MMIC_Label
  10
-297.337
  20
263.72
  0
VERTEX
  8
MMIC_Label
  10
-296.409
  20
263.72
  0
VERTEX
  8
MMIC_Label
  10
-296.409
  20
249.49
  0
VERTEX
  8
MMIC_Label
  10
-293.875
  20
249.49
  0
SEQEND
  0
POLYLINE
  8
MMIC_Trace
  70
1
  66
1
  0
VERTEX
  8
MMIC_Trace
  10
-463.469
  20
-132.503
  0
VERTEX
  8
MMIC_Trace
  10
-463.139
  20
-133.427
  0
VERTEX
  8
MMIC_Trace
  10
-462.719
  20
-134.314
  0
VERTEX
  8
MMIC_Trace
  10
-462.215
  20
-135.156
  0
VERTEX
  8
MMIC_Trace
  10
-461.63
  20
-135.944
  0
VERTEX
  8
MMIC_Trace
  10
-460.971
  20
-136.671
  0
VERTEX
  8
MMIC_Trace
  10
-460.244
  20
-137.33
  0
VERTEX
  8
MMIC_Trace
  10
-459.456
  20
-137.915
  0
VERTEX
  8
MMIC_Trace
  10
-458.614
  20
-138.419
  0
VERTEX
  8
MMIC_Trace
  10
-457.727
  20
-138.839
  0
VERTEX
  8
MMIC_Trace
  10
-456.803
  20
-139.169
  0
VERTEX
  8
MMIC_Trace
  10
-455.851
  20
-139.408
  0
VERTEX
  8
MMIC_Trace
  10
-454.88
  20
-139.552
  0
VERTEX
  8
MMIC_Trace
  10
-453.9
  20
-139.6
  0
VERTEX
  8
MMIC_Trace
  10
-372.9
  20
-139.6
  0
VERTEX
  8
MMIC_Trace
  10
-371.92
  20
-139.552
  0
VERTEX
  8
MMIC_Trace
  10
-370.949
  20
-139.408
  0
VERTEX
  8
MMIC_Trace
  10
-369.997
  20
-139.169
  0
VERTEX
  8
MMIC_Trace
  10
-369.073
  20
-138.839
  0
VERTEX
  8
MMIC_Trace
  10
-368.186
  20
-138.419
  0
VERTEX
  8
MMIC_Trace
  10
-367.344
  20
-137.915
  0
VERTEX
  8
MMIC_Trace
  10
-366.556
  20
-137.33
  0
VERTEX
  8
MMIC_Trace
  10
-365.829
  20
-136.671
  0
VERTEX
  8
MMIC_Trace
  10
-365.17
  20
-135.944
  0
VERTEX
  8
MMIC_Trace
  10
-364.585
  20
-135.156
  0
VERTEX
  8
MMIC_Trace
  10
-364.081
  20
-134.314
  0
VERTEX
  8
MMIC_Trace
  10
-363.661
  20
-133.427
  0
VERTEX
  8
MMIC_Trace
  10
-363.331
  20
-132.503
  0
VERTEX
  8
MMIC_Trace
  10
-363.092
  20
-131.551
  0
VERTEX
  8
MMIC_Trace
  10
-362.948
  20
-130.58
  0
VERTEX
  8
MMIC_Trace
  10
-362.9
  20
-129.6
  0
VERTEX
  8
MMIC_Trace
  10
-362.9
  20
50.4
  0
VERTEX
  8
MMIC_Trace
  10
-362.948
  20
51.38
  0
VERTEX
  8
MMIC_Trace
  10
-363.092
  20
52.351
  0
VERTEX
  8
MMIC_Trace
  10
-363.331
  20
53.303
  0
VERTEX
  8
MMIC_Trace
  10
-363.661
  20
54.227
  0
VERTEX
  8
MMIC_Trace
  10
-364.081
  20
55.114
  0
VERTEX
  8
MMIC_Trace
  10
-364.585
  20
55.956
  0
VERTEX
  8
MMIC_Trace
  10
-365.17
  20
56.744
  0
VERTEX
  8
MMIC_Trace
  10
-365.829
  20
57.471
  0
VERTEX
  8
MMIC_Trace
  10
-366.556
  20
58.13
  0
VERTEX
  8
MMIC_Trace
  10
-367.344
  20
58.715
  0
VERTEX
  8
MMIC_Trace
  10
-368.186
  20
59.219
  0
VERTEX
  8
MMIC_Trace
  10
-369.073
  20
59.639
  0
VERTEX
  8
MMIC_Trace
  10
-369.997
  20
59.969
  0
VERTEX
  8
MMIC_Trace
  10
-370.949
  20
60.208
  0
VERTEX
  8
MMIC_Trace
  10
-371.92
  20
60.352
  0
VERTEX
  8
MMIC_Trace
  10
-372.9
  20
60.4
  0
VERTEX
  8
MMIC_Trace
  10
-453.9
  20
60.4
  0
VERTEX
  8
MMIC_Trace
  10
-454.88
  20
60.352
  0
VERTEX
  8
MMIC_Trace
  10
-455.851
  20
60.208
  0
VERTEX
  8
MMIC_Trace
  10
-456.803
  20
59.969
  0
VERTEX
  8
MMIC_Trace
  10
-457.727
  20
59.639
  0
VERTEX
  8
MMIC_Trace
  10
-458.614
  20
59.219
  0
VERTEX
  8
MMIC_Trace
  10
-459.456
  20
58.715
  0
VERTEX
  8
MMIC_Trace
  10
-460.244
  20
58.13
  0
VERTEX
  8
MMIC_Trace
  10
-460.971
  20
57.471
  0
VERTEX
  8
MMIC_Trace
  10
-461.63
  20
56.744
  0
VERTEX
  8
MMIC_Trace
  10
-462.215
  20
55.956
  0
VERTEX
  8
MMIC_Trace
  10
-462.719
  20
55.114
  0
VERTEX
  8
MMIC_Trace
  10
-463.139
  20
54.227
  0
VERTEX
  8
MMIC_Trace
  10
-463.469
  20
53.303
  0
VERTEX
  8
MMIC_Trace
  10
-463.708
  20
52.351
  0
VERTEX
  8
MMIC_Trace
  10
-463.852
  20
51.38
  0
VERTEX
  8
MMIC_Trace
  10
-463.9
  20
50.4
  0
VERTEX
  8
MMIC_Trace
  10
-463.9
  20
-129.6
  0
VERTEX
  8
MMIC_Trace
  10
-463.852
  20
-130.58
  0
VERTEX
  8
MMIC_Trace
  10
-463.708
  20
-131.551
  0
SEQEND
  0
POLYLINE
  8
MMIC_Trace
  70
1
  66
1
  0
VERTEX
  8
MMIC_Trace
  10
450.1
  20
157.4
  0
VERTEX
  8
MMIC_Trace
  10
449.4
  20
157.4
  0
VERTEX
  8
MMIC_Trace
  10
449.4
  20
226
  0
VERTEX
  8
MMIC_Trace
  10
449.351
  20
226.98
  0
VERTEX
  8
MMIC_Trace
  10
449.207
  20
227.95
  0
VERTEX
  8
MMIC_Trace
  10
448.969
  20
228.902
  0
VERTEX
  8
MMIC_Trace
  10
448.638
  20
229.826
  0
VERTEX
  8
MMIC_Trace
  10
448.219
  20
230.713
  0
VERTEX
  8
MMIC_Trace
  10
447.714
  20
231.555
  0
VERTEX
  8
MMIC_Trace
  10
447.13
  20
232.343
  0
VERTEX
  8
MMIC_Trace
  10
446.471
  20
233.071
  0
VERTEX
  8
MMIC_Trace
  10
445.743
  20
233.73
  0
VERTEX
  8
MMIC_Trace
  10
444.955
  20
234.314
  0
VERTEX
  8
MMIC_Trace
  10
444.113
  20
234.819
  0
VERTEX
  8
MMIC_Trace
  10
443.226
  20
235.238
  0
VERTEX
  8
MMIC_Trace
  10
442.302
  20
235.569
  0
VERTEX
  8
MMIC_Trace
  10
441.35
  20
235.807
  0
VERTEX
  8
MMIC_Trace
  10
440.38
  20
235.951
  0
VERTEX
  8
MMIC_Trace
  10
439.4
  20
236
  0
VERTEX
  8
MMIC_Trace
  10
366.8
  20
236
  0
VERTEX
  8
MMIC_Trace
  10
365.82
  20
235.951
  0
VERTEX
  8
MMIC_Trace
  10
364.85
  20
235.807
  0
VERTEX
  8
MMIC_Trace
  10
363.898
  20
235.569
  0
VERTEX
  8
MMIC_Trace
  10
362.974
  20
235.238
  0
VERTEX
  8
MMIC_Trace
  10
362.087
  20
234.819
  0
VERTEX
  8
MMIC_Trace
  10
361.245
  20
234.314
  0
VERTEX
  8
MMIC_Trace
  10
360.457
  20
233.73
  0
VERTEX
  8
MMIC_Trace
  10
359.729
  20
233.071
  0
VERTEX
  8
MMIC_Trace
  10
359.07
  20
232.343
  0
VERTEX
  8
MMIC_Trace
  10
358.486
  20
231.555
  0
VERTEX
  8
MMIC_Trace
  10
357.981
  20
230.713
  0
VERTEX
  8
MMIC_Trace
  10
357.562
  20
229.826
  0
VERTEX
  8
MMIC_Trace
  10
357.231
  20
228.902
  0
VERTEX
  8
MMIC_Trace
  10
356.993
  20
227.95
  0
VERTEX
  8
MMIC_Trace
  10
356.849
  20
226.98
  0
VERTEX
  8
MMIC_Trace
  10
356.8
  20
226
  0
VERTEX
  8
MMIC_Trace
  10
356.8
  20
176.4
  0
VERTEX
  8
MMIC_Trace
  10
356.849
  20
175.419
  0
VERTEX
  8
MMIC_Trace
  10
356.993
  20
174.449
  0
VERTEX
  8
MMIC_Trace
  10
357.231
  20
173.497
  0
VERTEX
  8
MMIC_Trace
  10
357.562
  20
172.573
  0
VERTEX
  8
MMIC_Trace
  10
357.981
  20
171.686
  0
VERTEX
  8
MMIC_Trace
  10
358.486
  20
170.844
  0
VERTEX
  8
MMIC_Trace
  10
359.07
  20
170.056
  0
VERTEX
  8
MMIC_Trace
  10
359.729
  20
169.328
  0
VERTEX
  8
MMIC_Trace
  10
360.457
  20
168.669
  0
VERTEX
  8
MMIC_Trace
  10
361.245
  20
168.085
  0
VERTEX
  8
MMIC_Trace
  10
362.087
  20
167.58
  0
VERTEX
  8
MMIC_Trace
  10
362.974
  20
167.161
  0
VERTEX
  8
MMIC_Trace
  10
363.898
  20
166.83
  0
VERTEX
  8
MMIC_Trace
  10
364.85
  20
166.592
  0
VERTEX
  8
MMIC_Trace
  10
365.82
  20
166.448
  0
VERTEX
  8
MMIC_Trace
  10
366.8
  20
166.4
  0
VERTEX
  8
MMIC_Trace
  10
379.1
  20
166.4
  0
VERTEX
  8
MMIC_Trace
  10
379.1
  20
157.4
  0
VERTEX
  8
MMIC_Trace
  10
369.1
  20
157.4
  0
VERTEX
  8
MMIC_Trace
  10
368.12
  20
157.352
  0
VERTEX
  8
MMIC_Trace
  10
367.149
  20
157.208
  0
VERTEX
  8
MMIC_Trace
  10
366.197
  20
156.969
  0
VERTEX
  8
MMIC_Trace
  10
365.273
  20
156.639
  0
VERTEX
  8
MMIC_Trace
  10
364.386
  20
156.219
  0
VERTEX
  8
MMIC_Trace
  10
363.544
  20
155.715
  0
VERTEX
  8
MMIC_Trace
  10
362.756
  20
155.13
  0
VERTEX
  8
MMIC_Trace
  10
362.029
  20
154.471
  0
VERTEX
  8
MMIC_Trace
  10
361.37
  20
153.744
  0
VERTEX
  8
MMIC_Trace
  10
360.785
  20
152.956
  0
VERTEX
  8
MMIC_Trace
  10
360.281
  20
152.114
  0
VERTEX
  8
MMIC_Trace
  10
359.861
  20
151.227
  0
VERTEX
  8
MMIC_Trace
  10
359.531
  20
150.303
  0
VERTEX
  8
MMIC_Trace
  10
359.292
  20
149.351
  0
VERTEX
  8
MMIC_Trace
  10
359.148
  20
148.38
  0
VERTEX
  8
MMIC_Trace
  10
359.1
  20
147.4
  0
VERTEX
  8
MMIC_Trace
  10
359.1
  20
92.4
  0
VERTEX
  8
MMIC_Trace
  10
359.148
  20
91.42
  0
VERTEX
  8
MMIC_Trace
  10
359.292
  20
90.449
  0
VERTEX
  8
MMIC_Trace
  10
359.531
  20
89.497
  0
VERTEX
  8
MMIC_Trace
  10
359.861
  20
88.573
  0
VERTEX
  8
MMIC_Trace
  10
360.281
  20
87.686
  0
VERTEX
  8
MMIC_Trace
  10
360.785
  20
86.844
  0
VERTEX
  8
MMIC_Trace
  10
361.37
  20
86.056
  0
VERTEX
  8
MMIC_Trace
  10
362.029
  20
85.329
  0
VERTEX
  8
MMIC_Trace
  10
362.756
  20
84.67
  0
VERTEX
  8
MMIC_Trace
  10
363.544
  20
84.085
  0
VERTEX
  8
MMIC_Trace
  10
364.386
  20
83.581
  0
VERTEX
  8
MMIC_Trace
  10
365.273
  20
83.161
  0
VERTEX
  8
MMIC_Trace
  10
366.197
  20
82.831
  0
VERTEX
  8
MMIC_Trace
  10
367.149
  20
82.592
  0
VERTEX
  8
MMIC_Trace
  10
368.12
  20
82.448
  0
VERTEX
  8
MMIC_Trace
  10
369.1
  20
82.4
  0
VERTEX
  8
MMIC_Trace
  10
450.1
  20
82.4
  0
VERTEX
  8
MMIC_Trace
  10
451.08
  20
82.448
  0
VERTEX
  8
MMIC_Trace
  10
452.051
  20
82.592
  0
VERTEX
  8
MMIC_Trace
  10
453.003
  20
82.831
  0
VERTEX
  8
MMIC_Trace
  10
453.927
  20
83.161
  0
VERTEX
  8
MMIC_Trace
  10
454.814
  20
83.581
  0
VERTEX
  8
MMIC_Trace
  10
455.656
  20
84.085
  0
VERTEX
  8
MMIC_Trace
  10
456.444
  20
84.67
  0
VERTEX
  8
MMIC_Trace
  10
457.171
  20
85.329
  0
VERTEX
  8
MMIC_Trace
  10
457.83
  20
86.056
  0
VERTEX
  8
MMIC_Trace
  10
458.415
  20
86.844
  0
VERTEX
  8
MMIC_Trace
  10
458.919
  20
87.686
  0
VERTEX
  8
MMIC_Trace
  10
459.339
  20
88.573
  0
VERTEX
  8
MMIC_Trace
  10
459.669
  20
89.497
  0
VERTEX
  8
MMIC_Trace
  10
459.908
  20
90.449
  0
VERTEX
  8
MMIC_Trace
  10
460.052
  20
91.42
  0
VERTEX
  8
MMIC_Trace
  10
460.1
  20
92.4
  0
VERTEX
  8
MMIC_Trace
  10
460.1
  20
147.4
  0
VERTEX
  8
MMIC_Trace
  10
460.052
  20
148.38
  0
VERTEX
  8
MMIC_Trace
  10
459.908
  20
149.351
  0
VERTEX
  8
MMIC_Trace
  10
459.669
  20
150.303
  0
VERTEX
  8
MMIC_Trace
  10
459.339
  20
151.227
  0
VERTEX
  8
MMIC_Trace
  10
458.919
  20
152.114
  0
VERTEX
  8
MMIC_Trace
  10
458.415
  20
152.956
  0
VERTEX
  8
MMIC_Trace
  10
457.83
  20
153.744
  0
VERTEX
  8
MMIC_Trace
  10
457.171
  20
154.471
  0
VERTEX
  8
MMIC_Trace
  10
456.444
  20
155.13
  0
VERTEX
  8
MMIC_Trace
  10
455.656
  20
155.715
  0
VERTEX
  8
MMIC_Trace
  10
454.814
  20
156.219
  0
VERTEX
  8
MMIC_Trace
  10
453.927
  20
156.639
  0
VERTEX
  8
MMIC_Trace
  10
453.003
  20
156.969
  0
VERTEX
  8
MMIC_Trace
  10
452.051
  20
157.208
  0
VERTEX
  8
MMIC_Trace
  10
451.08
  20
157.352
  0
SEQEND
  0
POLYLINE
  8
MMIC_Trace
  70
1
  66
1
  0
VERTEX
  8
MMIC_Trace
  10
449.4
  20
-236.6
  0
VERTEX
  8
MMIC_Trace
  10
450.1
  20
-236.6
  0
VERTEX
  8
MMIC_Trace
  10
451.08
  20
-236.552
  0
VERTEX
  8
MMIC_Trace
  10
452.051
  20
-236.408
  0
VERTEX
  8
MMIC_Trace
  10
453.003
  20
-236.169
  0
VERTEX
  8
MMIC_Trace
  10
453.927
  20
-235.839
  0
VERTEX
  8
MMIC_Trace
  10
454.814
  20
-235.419
  0
VERTEX
  8
MMIC_Trace
  10
455.656
  20
-234.915
  0
VERTEX
  8
MMIC_Trace
  10
456.444
  20
-234.33
  0
VERTEX
  8
MMIC_Trace
  10
457.171
  20
-233.671
  0
VERTEX
  8
MMIC_Trace
  10
457.83
  20
-232.944
  0
VERTEX
  8
MMIC_Trace
  10
458.415
  20
-232.156
  0
VERTEX
  8
MMIC_Trace
  10
458.919
  20
-231.314
  0
VERTEX
  8
MMIC_Trace
  10
459.339
  20
-230.427
  0
VERTEX
  8
MMIC_Trace
  10
459.669
  20
-229.503
  0
VERTEX
  8
MMIC_Trace
  10
459.908
  20
-228.551
  0
VERTEX
  8
MMIC_Trace
  10
460.052
  20
-227.58
  0
VERTEX
  8
MMIC_Trace
  10
460.1
  20
-226.6
  0
VERTEX
  8
MMIC_Trace
  10
460.1
  20
-171.6
  0
VERTEX
  8
MMIC_Trace
  10
460.052
  20
-170.62
  0
VERTEX
  8
MMIC_Trace
  10
459.908
  20
-169.649
  0
VERTEX
  8
MMIC_Trace
  10
459.669
  20
-168.697
  0
VERTEX
  8
MMIC_Trace
  10
459.339
  20
-167.773
  0
VERTEX
  8
MMIC_Trace
  10
458.919
  20
-166.886
  0
VERTEX
  8
MMIC_Trace
  10
458.415
  20
-166.044
  0
VERTEX
  8
MMIC_Trace
  10
457.83
  20
-165.256
  0
VERTEX
  8
MMIC_Trace
  10
457.171
  20
-164.529
  0
VERTEX
  8
MMIC_Trace
  10
456.444
  20
-163.87
  0
VERTEX
  8
MMIC_Trace
  10
455.656
  20
-163.285
  0
VERTEX
  8
MMIC_Trace
  10
454.814
  20
-162.781
  0
VERTEX
  8
MMIC_Trace
  10
453.927
  20
-162.361
  0
VERTEX
  8
MMIC_Trace
  10
453.003
  20
-162.031
  0
VERTEX
  8
MMIC_Trace
  10
452.051
  20
-161.792
  0
VERTEX
  8
MMIC_Trace
  10
451.08
  20
-161.648
  0
VERTEX
  8
MMIC_Trace
  10
450.1
  20
-161.6
  0
VERTEX
  8
MMIC_Trace
  10
369.1
  20
-161.6
  0
VERTEX
  8
MMIC_Trace
  10
368.12
  20
-161.648
  0
VERTEX
  8
MMIC_Trace
  10
367.149
  20
-161.792
  0
VERTEX
  8
MMIC_Trace
  10
366.197
  20
-162.031
  0
VERTEX
  8
MMIC_Trace
  10
365.273
  20
-162.361
  0
VERTEX
  8
MMIC_Trace
  10
364.386
  20
-162.781
  0
VERTEX
  8
MMIC_Trace
  10
363.544
  20
-163.285
  0
VERTEX
  8
MMIC_Trace
  10
362.756
  20
-163.87
  0
VERTEX
  8
MMIC_Trace
  10
362.029
  20
-164.529
  0
VERTEX
  8
MMIC_Trace
  10
361.37
  20
-165.256
  0
VERTEX
  8
MMIC_Trace
  10
360.785
  20
-166.044
  0
VERTEX
  8
MMIC_Trace
  10
360.281
  20
-166.886
  0
VERTEX
  8
MMIC_Trace
  10
359.861
  20
-167.773
  0
VERTEX
  8
MMIC_Trace
  10
359.531
  20
-168.697
  0
VERTEX
  8
MMIC_Trace
  10
359.292
  20
-169.649
  0
VERTEX
  8
MMIC_Trace
  10
359.148
  20
-170.62
  0
VERTEX
  8
MMIC_Trace
  10
359.1
  20
-171.6
  0
VERTEX
  8
MMIC_Trace
  10
359.1
  20
-226.6
  0
VERTEX
  8
MMIC_Trace
  10
359.148
  20
-227.58
  0
VERTEX
  8
MMIC_Trace
  10
359.292
  20
-228.551
  0
VERTEX
  8
MMIC_Trace
  10
359.531
  20
-229.503
  0
VERTEX
  8
MMIC_Trace
  10
359.861
  20
-230.427
  0
VERTEX
  8
MMIC_Trace
  10
360.281
  20
-231.314
  0
VERTEX
  8
MMIC_Trace
  10
360.785
  20
-232.156
  0
VERTEX
  8
MMIC_Trace
  10
361.37
  20
-232.944
  0
VERTEX
  8
MMIC_Trace
  10
362.029
  20
-233.671
  0
VERTEX
  8
MMIC_Trace
  10
362.756
  20
-234.33
  0
VERTEX
  8
MMIC_Trace
  10
363.544
  20
-234.915
  0
VERTEX
  8
MMIC_Trace
  10
364.386
  20
-235.419
  0
VERTEX
  8
MMIC_Trace
  10
365.273
  20
-235.839
  0
VERTEX
  8
MMIC_Trace
  10
366.197
  20
-236.169
  0
VERTEX
  8
MMIC_Trace
  10
367.149
  20
-236.408
  0
VERTEX
  8
MMIC_Trace
  10
368.12
  20
-236.552
  0
VERTEX
  8
MMIC_Trace
  10
369.1
  20
-236.6
  0
VERTEX
  8
MMIC_Trace
  10
379.1
  20
-236.6
  0
VERTEX
  8
MMIC_Trace
  10
379.1
  20
-245.6
  0
VERTEX
  8
MMIC_Trace
  10
366.8
  20
-245.6
  0
VERTEX
  8
MMIC_Trace
  10
365.82
  20
-245.648
  0
VERTEX
  8
MMIC_Trace
  10
364.85
  20
-245.792
  0
VERTEX
  8
MMIC_Trace
  10
363.898
  20
-246.03
  0
VERTEX
  8
MMIC_Trace
  10
362.974
  20
-246.361
  0
VERTEX
  8
MMIC_Trace
  10
362.087
  20
-246.78
  0
VERTEX
  8
MMIC_Trace
  10
361.245
  20
-247.285
  0
VERTEX
  8
MMIC_Trace
  10
360.457
  20
-247.869
  0
VERTEX
  8
MMIC_Trace
  10
359.729
  20
-248.528
  0
VERTEX
  8
MMIC_Trace
  10
359.07
  20
-249.256
  0
VERTEX
  8
MMIC_Trace
  10
358.486
  20
-250.044
  0
VERTEX
  8
MMIC_Trace
  10
357.981
  20
-250.886
  0
VERTEX
  8
MMIC_Trace
  10
357.562
  20
-251.773
  0
VERTEX
  8
MMIC_Trace
  10
357.231
  20
-252.697
  0
VERTEX
  8
MMIC_Trace
  10
356.993
  20
-253.649
  0
VERTEX
  8
MMIC_Trace
  10
356.849
  20
-254.619
  0
VERTEX
  8
MMIC_Trace
  10
356.8
  20
-255.6
  0
VERTEX
  8
MMIC_Trace
  10
356.8
  20
-305.2
  0
VERTEX
  8
MMIC_Trace
  10
356.849
  20
-306.18
  0
VERTEX
  8
MMIC_Trace
  10
356.993
  20
-307.15
  0
VERTEX
  8
MMIC_Trace
  10
357.231
  20
-308.102
  0
VERTEX
  8
MMIC_Trace
  10
357.562
  20
-309.026
  0
VERTEX
  8
MMIC_Trace
  10
357.981
  20
-309.913
  0
VERTEX
  8
MMIC_Trace
  10
358.486
  20
-310.755
  0
VERTEX
  8
MMIC_Trace
  10
359.07
  20
-311.543
  0
VERTEX
  8
MMIC_Trace
  10
359.729
  20
-312.271
  0
VERTEX
  8
MMIC_Trace
  10
360.457
  20
-312.93
  0
VERTEX
  8
MMIC_Trace
  10
361.245
  20
-313.514
  0
VERTEX
  8
MMIC_Trace
  10
362.087
  20
-314.019
  0
VERTEX
  8
MMIC_Trace
  10
362.974
  20
-314.438
  0
VERTEX
  8
MMIC_Trace
  10
363.898
  20
-314.769
  0
VERTEX
  8
MMIC_Trace
  10
364.85
  20
-315.007
  0
VERTEX
  8
MMIC_Trace
  10
365.82
  20
-315.151
  0
VERTEX
  8
MMIC_Trace
  10
366.8
  20
-315.2
  0
VERTEX
  8
MMIC_Trace
  10
439.4
  20
-315.2
  0
VERTEX
  8
MMIC_Trace
  10
440.38
  20
-315.151
  0
VERTEX
  8
MMIC_Trace
  10
441.35
  20
-315.007
  0
VERTEX
  8
MMIC_Trace
  10
442.302
  20
-314.769
  0
VERTEX
  8
MMIC_Trace
  10
443.226
  20
-314.438
  0
VERTEX
  8
MMIC_Trace
  10
444.113
  20
-314.019
  0
VERTEX
  8
MMIC_Trace
  10
444.955
  20
-313.514
  0
VERTEX
  8
MMIC_Trace
  10
445.743
  20
-312.93
  0
VERTEX
  8
MMIC_Trace
  10
446.471
  20
-312.271
  0
VERTEX
  8
MMIC_Trace
  10
447.13
  20
-311.543
  0
VERTEX
  8
MMIC_Trace
  10
447.714
  20
-310.755
  0
VERTEX
  8
MMIC_Trace
  10
448.219
  20
-309.913
  0
VERTEX
  8
MMIC_Trace
  10
448.638
  20
-309.026
  0
VERTEX
  8
MMIC_Trace
  10
448.969
  20
-308.102
  0
VERTEX
  8
MMIC_Trace
  10
449.207
  20
-307.15
  0
VERTEX
  8
MMIC_Trace
  10
449.351
  20
-306.18
  0
VERTEX
  8
MMIC_Trace
  10
449.4
  20
-305.2
  0
SEQEND
  0
POLYLINE
  8
MMIC_Trace
  70
1
  66
1
  0
VERTEX
  8
MMIC_Trace
  10
359.531
  20
-132.503
  0
VERTEX
  8
MMIC_Trace
  10
359.861
  20
-133.427
  0
VERTEX
  8
MMIC_Trace
  10
360.281
  20
-134.314
  0
VERTEX
  8
MMIC_Trace
  10
360.785
  20
-135.156
  0
VERTEX
  8
MMIC_Trace
  10
361.37
  20
-135.944
  0
VERTEX
  8
MMIC_Trace
  10
362.029
  20
-136.671
  0
VERTEX
  8
MMIC_Trace
  10
362.756
  20
-137.33
  0
VERTEX
  8
MMIC_Trace
  10
363.544
  20
-137.915
  0
VERTEX
  8
MMIC_Trace
  10
364.386
  20
-138.419
  0
VERTEX
  8
MMIC_Trace
  10
365.273
  20
-138.839
  0
VERTEX
  8
MMIC_Trace
  10
366.197
  20
-139.169
  0
VERTEX
  8
MMIC_Trace
  10
367.149
  20
-139.408
  0
VERTEX
  8
MMIC_Trace
  10
368.12
  20
-139.552
  0
VERTEX
  8
MMIC_Trace
  10
369.1
  20
-139.6
  0
VERTEX
  8
MMIC_Trace
  10
450.1
  20
-139.6
  0
VERTEX
  8
MMIC_Trace
  10
451.08
  20
-139.552
  0
VERTEX
  8
MMIC_Trace
  10
452.051
  20
-139.408
  0
VERTEX
  8
MMIC_Trace
  10
453.003
  20
-139.169
  0
VERTEX
  8
MMIC_Trace
  10
453.927
  20
-138.839
  0
VERTEX
  8
MMIC_Trace
  10
454.814
  20
-138.419
  0
VERTEX
  8
MMIC_Trace
  10
455.656
  20
-137.915
  0
VERTEX
  8
MMIC_Trace
  10
456.444
  20
-137.33
  0
VERTEX
  8
MMIC_Trace
  10
457.171
  20
-136.671
  0
VERTEX
  8
MMIC_Trace
  10
457.83
  20
-135.944
  0
VERTEX
  8
MMIC_Trace
  10
458.415
  20
-135.156
  0
VERTEX
  8
MMIC_Trace
  10
458.919
  20
-134.314
  0
VERTEX
  8
MMIC_Trace
  10
459.339
  20
-133.427
  0
VERTEX
  8
MMIC_Trace
  10
459.669
  20
-132.503
  0
VERTEX
  8
MMIC_Trace
  10
459.908
  20
-131.551
  0
VERTEX
  8
MMIC_Trace
  10
460.052
  20
-130.58
  0
VERTEX
  8
MMIC_Trace
  10
460.1
  20
-129.6
  0
VERTEX
  8
MMIC_Trace
  10
460.1
  20
50.4
  0
VERTEX
  8
MMIC_Trace
  10
460.052
  20
51.38
  0
VERTEX
  8
MMIC_Trace
  10
459.908
  20
52.351
  0
VERTEX
  8
MMIC_Trace
  10
459.669
  20
53.303
  0
VERTEX
  8
MMIC_Trace
  10
459.339
  20
54.227
  0
VERTEX
  8
MMIC_Trace
  10
458.919
  20
55.114
  0
VERTEX
  8
MMIC_Trace
  10
458.415
  20
55.956
  0
VERTEX
  8
MMIC_Trace
  10
457.83
  20
56.744
  0
VERTEX
  8
MMIC_Trace
  10
457.171
  20
57.471
  0
VERTEX
  8
MMIC_Trace
  10
456.444
  20
58.13
  0
VERTEX
  8
MMIC_Trace
  10
455.656
  20
58.715
  0
VERTEX
  8
MMIC_Trace
  10
454.814
  20
59.219
  0
VERTEX
  8
MMIC_Trace
  10
453.927
  20
59.639
  0
VERTEX
  8
MMIC_Trace
  10
453.003
  20
59.969
  0
VERTEX
  8
MMIC_Trace
  10
452.051
  20
60.208
  0
VERTEX
  8
MMIC_Trace
  10
451.08
  20
60.352
  0
VERTEX
  8
MMIC_Trace
  10
450.1
  20
60.4
  0
VERTEX
  8
MMIC_Trace
  10
369.1
  20
60.4
  0
VERTEX
  8
MMIC_Trace
  10
368.12
  20
60.352
  0
VERTEX
  8
MMIC_Trace
  10
367.149
  20
60.208
  0
VERTEX
  8
MMIC_Trace
  10
366.197
  20
59.969
  0
VERTEX
  8
MMIC_Trace
  10
365.273
  20
59.639
  0
VERTEX
  8
MMIC_Trace
  10
364.386
  20
59.219
  0
VERTEX
  8
MMIC_Trace
  10
363.544
  20
58.715
  0
VERTEX
  8
MMIC_Trace
  10
362.756
  20
58.13
  0
VERTEX
  8
MMIC_Trace
  10
362.029
  20
57.471
  0
VERTEX
  8
MMIC_Trace
  10
361.37
  20
56.744
  0
VERTEX
  8
MMIC_Trace
  10
360.785
  20
55.956
  0
VERTEX
  8
MMIC_Trace
  10
360.281
  20
55.114
  0
VERTEX
  8
MMIC_Trace
  10
359.861
  20
54.227
  0
VERTEX
  8
MMIC_Trace
  10
359.531
  20
53.303
  0
VERTEX
  8
MMIC_Trace
  10
359.292
  20
52.351
  0
VERTEX
  8
MMIC_Trace
  10
359.148
  20
51.38
  0
VERTEX
  8
MMIC_Trace
  10
359.1
  20
50.4
  0
VERTEX
  8
MMIC_Trace
  10
359.1
  20
-129.6
  0
VERTEX
  8
MMIC_Trace
  10
359.148
  20
-130.58
  0
VERTEX
  8
MMIC_Trace
  10
359.292
  20
-131.551
  0
SEQEND
  0
POLYLINE
  8
MMIC_Trace
  70
1
  66
1
  0
VERTEX
  8
MMIC_Trace
  10
-453.9
  20
-236.6
  0
VERTEX
  8
MMIC_Trace
  10
-453.2
  20
-236.6
  0
VERTEX
  8
MMIC_Trace
  10
-453.2
  20
-305.2
  0
VERTEX
  8
MMIC_Trace
  10
-453.151
  20
-306.18
  0
VERTEX
  8
MMIC_Trace
  10
-453.007
  20
-307.15
  0
VERTEX
  8
MMIC_Trace
  10
-452.769
  20
-308.102
  0
VERTEX
  8
MMIC_Trace
  10
-452.438
  20
-309.026
  0
VERTEX
  8
MMIC_Trace
  10
-452.019
  20
-309.913
  0
VERTEX
  8
MMIC_Trace
  10
-451.514
  20
-310.755
  0
VERTEX
  8
MMIC_Trace
  10
-450.93
  20
-311.543
  0
VERTEX
  8
MMIC_Trace
  10
-450.271
  20
-312.271
  0
VERTEX
  8
MMIC_Trace
  10
-449.543
  20
-312.93
  0
VERTEX
  8
MMIC_Trace
  10
-448.755
  20
-313.514
  0
VERTEX
  8
MMIC_Trace
  10
-447.913
  20
-314.019
  0
VERTEX
  8
MMIC_Trace
  10
-447.026
  20
-314.438
  0
VERTEX
  8
MMIC_Trace
  10
-446.102
  20
-314.769
  0
VERTEX
  8
MMIC_Trace
  10
-445.15
  20
-315.007
  0
VERTEX
  8
MMIC_Trace
  10
-444.18
  20
-315.151
  0
VERTEX
  8
MMIC_Trace
  10
-443.2
  20
-315.2
  0
VERTEX
  8
MMIC_Trace
  10
-370.6
  20
-315.2
  0
VERTEX
  8
MMIC_Trace
  10
-369.62
  20
-315.151
  0
VERTEX
  8
MMIC_Trace
  10
-368.65
  20
-315.007
  0
VERTEX
  8
MMIC_Trace
  10
-367.698
  20
-314.769
  0
VERTEX
  8
MMIC_Trace
  10
-366.774
  20
-314.438
  0
VERTEX
  8
MMIC_Trace
  10
-365.887
  20
-314.019
  0
VERTEX
  8
MMIC_Trace
  10
-365.045
  20
-313.514
  0
VERTEX
  8
MMIC_Trace
  10
-364.257
  20
-312.93
  0
VERTEX
  8
MMIC_Trace
  10
-363.529
  20
-312.271
  0
VERTEX
  8
MMIC_Trace
  10
-362.87
  20
-311.543
  0
VERTEX
  8
MMIC_Trace
  10
-362.286
  20
-310.755
  0
VERTEX
  8
MMIC_Trace
  10
-361.781
  20
-309.913
  0
VERTEX
  8
MMIC_Trace
  10
-361.362
  20
-309.026
  0
VERTEX
  8
MMIC_Trace
  10
-361.031
  20
-308.102
  0
VERTEX
  8
MMIC_Trace
  10
-360.793
  20
-307.15
  0
VERTEX
  8
MMIC_Trace
  10
-360.649
  20
-306.18
  0
VERTEX
  8
MMIC_Trace
  10
-360.6
  20
-305.2
  0
VERTEX
  8
MMIC_Trace
  10
-360.6
  20
-255.6
  0
VERTEX
  8
MMIC_Trace
  10
-360.649
  20
-254.619
  0
VERTEX
  8
MMIC_Trace
  10
-360.793
  20
-253.649
  0
VERTEX
  8
MMIC_Trace
  10
-361.031
  20
-252.697
  0
VERTEX
  8
MMIC_Trace
  10
-361.362
  20
-251.773
  0
VERTEX
  8
MMIC_Trace
  10
-361.781
  20
-250.886
  0
VERTEX
  8
MMIC_Trace
  10
-362.286
  20
-250.044
  0
VERTEX
  8
MMIC_Trace
  10
-362.87
  20
-249.256
  0
VERTEX
  8
MMIC_Trace
  10
-363.529
  20
-248.528
  0
VERTEX
  8
MMIC_Trace
  10
-364.257
  20
-247.869
  0
VERTEX
  8
MMIC_Trace
  10
-365.045
  20
-247.285
  0
VERTEX
  8
MMIC_Trace
  10
-365.887
  20
-246.78
  0
VERTEX
  8
MMIC_Trace
  10
-366.774
  20
-246.361
  0
VERTEX
  8
MMIC_Trace
  10
-367.698
  20
-246.03
  0
VERTEX
  8
MMIC_Trace
  10
-368.65
  20
-245.792
  0
VERTEX
  8
MMIC_Trace
  10
-369.62
  20
-245.648
  0
VERTEX
  8
MMIC_Trace
  10
-370.6
  20
-245.6
  0
VERTEX
  8
MMIC_Trace
  10
-382.9
  20
-245.6
  0
VERTEX
  8
MMIC_Trace
  10
-382.9
  20
-236.6
  0
VERTEX
  8
MMIC_Trace
  10
-372.9
  20
-236.6
  0
VERTEX
  8
MMIC_Trace
  10
-371.92
  20
-236.552
  0
VERTEX
  8
MMIC_Trace
  10
-370.949
  20
-236.408
  0
VERTEX
  8
MMIC_Trace
  10
-369.997
  20
-236.169
  0
VERTEX
  8
MMIC_Trace
  10
-369.073
  20
-235.839
  0
VERTEX
  8
MMIC_Trace
  10
-368.186
  20
-235.419
  0
VERTEX
  8
MMIC_Trace
  10
-367.344
  20
-234.915
  0
VERTEX
  8
MMIC_Trace
  10
-366.556
  20
-234.33
  0
VERTEX
  8
MMIC_Trace
  10
-365.829
  20
-233.671
  0
VERTEX
  8
MMIC_Trace
  10
-365.17
  20
-232.944
  0
VERTEX
  8
MMIC_Trace
  10
-364.585
  20
-232.156
  0
VERTEX
  8
MMIC_Trace
  10
-364.081
  20
-231.314
  0
VERTEX
  8
MMIC_Trace
  10
-363.661
  20
-230.427
  0
VERTEX
  8
MMIC_Trace
  10
-363.331
  20
-229.503
  0
VERTEX
  8
MMIC_Trace
  10
-363.092
  20
-228.551
  0
VERTEX
  8
MMIC_Trace
  10
-362.948
  20
-227.58
  0
VERTEX
  8
MMIC_Trace
  10
-362.9
  20
-226.6
  0
VERTEX
  8
MMIC_Trace
  10
-362.9
  20
-171.6
  0
VERTEX
  8
MMIC_Trace
  10
-362.948
  20
-170.62
  0
VERTEX
  8
MMIC_Trace
  10
-363.092
  20
-169.649
  0
VERTEX
  8
MMIC_Trace
  10
-363.331
  20
-168.697
  0
VERTEX
  8
MMIC_Trace
  10
-363.661
  20
-167.773
  0
VERTEX
  8
MMIC_Trace
  10
-364.081
  20
-166.886
  0
VERTEX
  8
MMIC_Trace
  10
-364.585
  20
-166.044
  0
VERTEX
  8
MMIC_Trace
  10
-365.17
  20
-165.256
  0
VERTEX
  8
MMIC_Trace
  10
-365.829
  20
-164.529
  0
VERTEX
  8
MMIC_Trace
  10
-366.556
  20
-163.87
  0
VERTEX
  8
MMIC_Trace
  10
-367.344
  20
-163.285
  0
VERTEX
  8
MMIC_Trace
  10
-368.186
  20
-162.781
  0
VERTEX
  8
MMIC_Trace
  10
-369.073
  20
-162.361
  0
VERTEX
  8
MMIC_Trace
  10
-369.997
  20
-162.031
  0
VERTEX
  8
MMIC_Trace
  10
-370.949
  20
-161.792
  0
VERTEX
  8
MMIC_Trace
  10
-371.92
  20
-161.648
  0
VERTEX
  8
MMIC_Trace
  10
-372.9
  20
-161.6
  0
VERTEX
  8
MMIC_Trace
  10
-453.9
  20
-161.6
  0
VERTEX
  8
MMIC_Trace
  10
-454.88
  20
-161.648
  0
VERTEX
  8
MMIC_Trace
  10
-455.851
  20
-161.792
  0
VERTEX
  8
MMIC_Trace
  10
-456.803
  20
-162.031
  0
VERTEX
  8
MMIC_Trace
  10
-457.727
  20
-162.361
  0
VERTEX
  8
MMIC_Trace
  10
-458.614
  20
-162.781
  0
VERTEX
  8
MMIC_Trace
  10
-459.456
  20
-163.285
  0
VERTEX
  8
MMIC_Trace
  10
-460.244
  20
-163.87
  0
VERTEX
  8
MMIC_Trace
  10
-460.971
  20
-164.529
  0
VERTEX
  8
MMIC_Trace
  10
-461.63
  20
-165.256
  0
VERTEX
  8
MMIC_Trace
  10
-462.215
  20
-166.044
  0
VERTEX
  8
MMIC_Trace
  10
-462.719
  20
-166.886
  0
VERTEX
  8
MMIC_Trace
  10
-463.139
  20
-167.773
  0
VERTEX
  8
MMIC_Trace
  10
-463.469
  20
-168.697
  0
VERTEX
  8
MMIC_Trace
  10
-463.708
  20
-169.649
  0
VERTEX
  8
MMIC_Trace
  10
-463.852
  20
-170.62
  0
VERTEX
  8
MMIC_Trace
  10
-463.9
  20
-171.6
  0
VERTEX
  8
MMIC_Trace
  10
-463.9
  20
-226.6
  0
VERTEX
  8
MMIC_Trace
  10
-463.852
  20
-227.58
  0
VERTEX
  8
MMIC_Trace
  10
-463.708
  20
-228.551
  0
VERTEX
  8
MMIC_Trace
  10
-463.469
  20
-229.503
  0
VERTEX
  8
MMIC_Trace
  10
-463.139
  20
-230.427
  0
VERTEX
  8
MMIC_Trace
  10
-462.719
  20
-231.314
  0
VERTEX
  8
MMIC_Trace
  10
-462.215
  20
-232.156
  0
VERTEX
  8
MMIC_Trace
  10
-461.63
  20
-232.944
  0
VERTEX
  8
MMIC_Trace
  10
-460.971
  20
-233.671
  0
VERTEX
  8
MMIC_Trace
  10
-460.244
  20
-234.33
  0
VERTEX
  8
MMIC_Trace
  10
-459.456
  20
-234.915
  0
VERTEX
  8
MMIC_Trace
  10
-458.614
  20
-235.419
  0
VERTEX
  8
MMIC_Trace
  10
-457.727
  20
-235.839
  0
VERTEX
  8
MMIC_Trace
  10
-456.803
  20
-236.169
  0
VERTEX
  8
MMIC_Trace
  10
-455.851
  20
-236.408
  0
VERTEX
  8
MMIC_Trace
  10
-454.88
  20
-236.552
  0
SEQEND
  0
POLYLINE
  8
MMIC_Trace
  70
1
  66
1
  0
VERTEX
  8
MMIC_Trace
  10
-453.2
  20
157.4
  0
VERTEX
  8
MMIC_Trace
  10
-453.9
  20
157.4
  0
VERTEX
  8
MMIC_Trace
  10
-454.88
  20
157.352
  0
VERTEX
  8
MMIC_Trace
  10
-455.851
  20
157.208
  0
VERTEX
  8
MMIC_Trace
  10
-456.803
  20
156.969
  0
VERTEX
  8
MMIC_Trace
  10
-457.727
  20
156.639
  0
VERTEX
  8
MMIC_Trace
  10
-458.614
  20
156.219
  0
VERTEX
  8
MMIC_Trace
  10
-459.456
  20
155.715
  0
VERTEX
  8
MMIC_Trace
  10
-460.244
  20
155.13
  0
VERTEX
  8
MMIC_Trace
  10
-460.971
  20
154.471
  0
VERTEX
  8
MMIC_Trace
  10
-461.63
  20
153.744
  0
VERTEX
  8
MMIC_Trace
  10
-462.215
  20
152.956
  0
VERTEX
  8
MMIC_Trace
  10
-462.719
  20
152.114
  0
VERTEX
  8
MMIC_Trace
  10
-463.139
  20
151.227
  0
VERTEX
  8
MMIC_Trace
  10
-463.469
  20
150.303
  0
VERTEX
  8
MMIC_Trace
  10
-463.708
  20
149.351
  0
VERTEX
  8
MMIC_Trace
  10
-463.852
  20
148.38
  0
VERTEX
  8
MMIC_Trace
  10
-463.9
  20
147.4
  0
VERTEX
  8
MMIC_Trace
  10
-463.9
  20
92.4
  0
VERTEX
  8
MMIC_Trace
  10
-463.852
  20
91.42
  0
VERTEX
  8
MMIC_Trace
  10
-463.708
  20
90.449
  0
VERTEX
  8
MMIC_Trace
  10
-463.469
  20
89.497
  0
VERTEX
  8
MMIC_Trace
  10
-463.139
  20
88.573
  0
VERTEX
  8
MMIC_Trace
  10
-462.719
  20
87.686
  0
VERTEX
  8
MMIC_Trace
  10
-462.215
  20
86.844
  0
VERTEX
  8
MMIC_Trace
  10
-461.63
  20
86.056
  0
VERTEX
  8
MMIC_Trace
  10
-460.971
  20
85.329
  0
VERTEX
  8
MMIC_Trace
  10
-460.244
  20
84.67
  0
VERTEX
  8
MMIC_Trace
  10
-459.456
  20
84.085
  0
VERTEX
  8
MMIC_Trace
  10
-458.614
  20
83.581
  0
VERTEX
  8
MMIC_Trace
  10
-457.727
  20
83.161
  0
VERTEX
  8
MMIC_Trace
  10
-456.803
  20
82.831
  0
VERTEX
  8
MMIC_Trace
  10
-455.851
  20
82.592
  0
VERTEX
  8
MMIC_Trace
  10
-454.88
  20
82.448
  0
VERTEX
  8
MMIC_Trace
  10
-453.9
  20
82.4
  0
VERTEX
  8
MMIC_Trace
  10
-372.9
  20
82.4
  0
VERTEX
  8
MMIC_Trace
  10
-371.92
  20
82.448
  0
VERTEX
  8
MMIC_Trace
  10
-370.949
  20
82.592
  0
VERTEX
  8
MMIC_Trace
  10
-369.997
  20
82.831
  0
VERTEX
  8
MMIC_Trace
  10
-369.073
  20
83.161
  0
VERTEX
  8
MMIC_Trace
  10
-368.186
  20
83.581
  0
VERTEX
  8
MMIC_Trace
  10
-367.344
  20
84.085
  0
VERTEX
  8
MMIC_Trace
  10
-366.556
  20
84.67
  0
VERTEX
  8
MMIC_Trace
  10
-365.829
  20
85.329
  0
VERTEX
  8
MMIC_Trace
  10
-365.17
  20
86.056
  0
VERTEX
  8
MMIC_Trace
  10
-364.585
  20
86.844
  0
VERTEX
  8
MMIC_Trace
  10
-364.081
  20
87.686
  0
VERTEX
  8
MMIC_Trace
  10
-363.661
  20
88.573
  0
VERTEX
  8
MMIC_Trace
  10
-363.331
  20
89.497
  0
VERTEX
  8
MMIC_Trace
  10
-363.092
  20
90.449
  0
VERTEX
  8
MMIC_Trace
  10
-362.948
  20
91.42
  0
VERTEX
  8
MMIC_Trace
  10
-362.9
  20
92.4
  0
VERTEX
  8
MMIC_Trace
  10
-362.9
  20
147.4
  0
VERTEX
  8
MMIC_Trace
  10
-362.948
  20
148.38
  0
VERTEX
  8
MMIC_Trace
  10
-363.092
  20
149.351
  0
VERTEX
  8
MMIC_Trace
  10
-363.331
  20
150.303
  0
VERTEX
  8
MMIC_Trace
  10
-363.661
  20
151.227
  0
VERTEX
  8
MMIC_Trace
  10
-364.081
  20
152.114
  0
VERTEX
  8
MMIC_Trace
  10
-364.585
  20
152.956
  0
VERTEX
  8
MMIC_Trace
  10
-365.17
  20
153.744
  0
VERTEX
  8
MMIC_Trace
  10
-365.829
  20
154.471
  0
VERTEX
  8
MMIC_Trace
  10
-366.556
  20
155.13
  0
VERTEX
  8
MMIC_Trace
  10
-367.344
  20
155.715
  0
VERTEX
  8
MMIC_Trace
  10
-368.186
  20
156.219
  0
VERTEX
  8
MMIC_Trace
  10
-369.073
  20
156.639
  0
VERTEX
  8
MMIC_Trace
  10
-369.997
  20
156.969
  0
VERTEX
  8
MMIC_Trace
  10
-370.949
  20
157.208
  0
VERTEX
  8
MMIC_Trace
  10
-371.92
  20
157.352
  0
VERTEX
  8
MMIC_Trace
  10
-372.9
  20
157.4
  0
VERTEX
  8
MMIC_Trace
  10
-382.9
  20
157.4
  0
VERTEX
  8
MMIC_Trace
  10
-382.9
  20
166.4
  0
VERTEX
  8
MMIC_Trace
  10
-370.6
  20
166.4
  0
VERTEX
  8
MMIC_Trace
  10
-369.62
  20
166.448
  0
VERTEX
  8
MMIC_Trace
  10
-368.65
  20
166.592
  0
VERTEX
  8
MMIC_Trace
  10
-367.698
  20
166.83
  0
VERTEX
  8
MMIC_Trace
  10
-366.774
  20
167.161
  0
VERTEX
  8
MMIC_Trace
  10
-365.887
  20
167.58
  0
VERTEX
  8
MMIC_Trace
  10
-365.045
  20
168.085
  0
VERTEX
  8
MMIC_Trace
  10
-364.257
  20
168.669
  0
VERTEX
  8
MMIC_Trace
  10
-363.529
  20
169.328
  0
VERTEX
  8
MMIC_Trace
  10
-362.87
  20
170.056
  0
VERTEX
  8
MMIC_Trace
  10
-362.286
  20
170.844
  0
VERTEX
  8
MMIC_Trace
  10
-361.781
  20
171.686
  0
VERTEX
  8
MMIC_Trace
  10
-361.362
  20
172.573
  0
VERTEX
  8
MMIC_Trace
  10
-361.031
  20
173.497
  0
VERTEX
  8
MMIC_Trace
  10
-360.793
  20
174.449
  0
VERTEX
  8
MMIC_Trace
  10
-360.649
  20
175.419
  0
VERTEX
  8
MMIC_Trace
  10
-360.6
  20
176.4
  0
VERTEX
  8
MMIC_Trace
  10
-360.6
  20
226
  0
VERTEX
  8
MMIC_Trace
  10
-360.649
  20
226.98
  0
VERTEX
  8
MMIC_Trace
  10
-360.793
  20
227.95
  0
VERTEX
  8
MMIC_Trace
  10
-361.031
  20
228.902
  0
VERTEX
  8
MMIC_Trace
  10
-361.362
  20
229.826
  0
VERTEX
  8
MMIC_Trace
  10
-361.781
  20
230.713
  0
VERTEX
  8
MMIC_Trace
  10
-362.286
  20
231.555
  0
VERTEX
  8
MMIC_Trace
  10
-362.87
  20
232.343
  0
VERTEX
  8
MMIC_Trace
  10
-363.529
  20
233.071
  0
VERTEX
  8
MMIC_Trace
  10
-364.257
  20
233.73
  0
VERTEX
  8
MMIC_Trace
  10
-365.045
  20
234.314
  0
VERTEX
  8
MMIC_Trace
  10
-365.887
  20
234.819
  0
VERTEX
  8
MMIC_Trace
  10
-366.774
  20
235.238
  0
VERTEX
  8
MMIC_Trace
  10
-367.698
  20
235.569
  0
VERTEX
  8
MMIC_Trace
  10
-368.65
  20
235.807
  0
VERTEX
  8
MMIC_Trace
  10
-369.62
  20
235.951
  0
VERTEX
  8
MMIC_Trace
  10
-370.6
  20
236
  0
VERTEX
  8
MMIC_Trace
  10
-443.2
  20
236
  0
VERTEX
  8
MMIC_Trace
  10
-444.18
  20
235.951
  0
VERTEX
  8
MMIC_Trace
  10
-445.15
  20
235.807
  0
VERTEX
  8
MMIC_Trace
  10
-446.102
  20
235.569
  0
VERTEX
  8
MMIC_Trace
  10
-447.026
  20
235.238
  0
VERTEX
  8
MMIC_Trace
  10
-447.913
  20
234.819
  0
VERTEX
  8
MMIC_Trace
  10
-448.755
  20
234.314
  0
VERTEX
  8
MMIC_Trace
  10
-449.543
  20
233.73
  0
VERTEX
  8
MMIC_Trace
  10
-450.271
  20
233.071
  0
VERTEX
  8
MMIC_Trace
  10
-450.93
  20
232.343
  0
VERTEX
  8
MMIC_Trace
  10
-451.514
  20
231.555
  0
VERTEX
  8
MMIC_Trace
  10
-452.019
  20
230.713
  0
VERTEX
  8
MMIC_Trace
  10
-452.438
  20
229.826
  0
VERTEX
  8
MMIC_Trace
  10
-452.769
  20
228.902
  0
VERTEX
  8
MMIC_Trace
  10
-453.007
  20
227.95
  0
VERTEX
  8
MMIC_Trace
  10
-453.151
  20
226.98
  0
VERTEX
  8
MMIC_Trace
  10
-453.2
  20
226
  0
SEQEND
  0
POLYLINE
  8
MMIC_BondPad
  70
1
  66
1
  0
VERTEX
  8
MMIC_BondPad
  10
-463.469
  20
89.497
  0
VERTEX
  8
MMIC_BondPad
  10
-463.139
  20
88.573
  0
VERTEX
  8
MMIC_BondPad
  10
-462.719
  20
87.686
  0
VERTEX
  8
MMIC_BondPad
  10
-462.215
  20
86.844
  0
VERTEX
  8
MMIC_BondPad
  10
-461.63
  20
86.056
  0
VERTEX
  8
MMIC_BondPad
  10
-460.971
  20
85.329
  0
VERTEX
  8
MMIC_BondPad
  10
-460.244
  20
84.67
  0
VERTEX
  8
MMIC_BondPad
  10
-459.456
  20
84.085
  0
VERTEX
  8
MMIC_BondPad
  10
-458.614
  20
83.581
  0
VERTEX
  8
MMIC_BondPad
  10
-457.727
  20
83.161
  0
VERTEX
  8
MMIC_BondPad
  10
-456.803
  20
82.831
  0
VERTEX
  8
MMIC_BondPad
  10
-455.851
  20
82.592
  0
VERTEX
  8
MMIC_BondPad
  10
-454.88
  20
82.448
  0
VERTEX
  8
MMIC_BondPad
  10
-453.9
  20
82.4
  0
VERTEX
  8
MMIC_BondPad
  10
-372.9
  20
82.4
  0
VERTEX
  8
MMIC_BondPad
  10
-371.92
  20
82.448
  0
VERTEX
  8
MMIC_BondPad
  10
-370.949
  20
82.592
  0
VERTEX
  8
MMIC_BondPad
  10
-369.997
  20
82.831
  0
VERTEX
  8
MMIC_BondPad
  10
-369.073
  20
83.161
  0
VERTEX
  8
MMIC_BondPad
  10
-368.186
  20
83.581
  0
VERTEX
  8
MMIC_BondPad
  10
-367.344
  20
84.085
  0
VERTEX
  8
MMIC_BondPad
  10
-366.556
  20
84.67
  0
VERTEX
  8
MMIC_BondPad
  10
-365.829
  20
85.329
  0
VERTEX
  8
MMIC_BondPad
  10
-365.17
  20
86.056
  0
VERTEX
  8
MMIC_BondPad
  10
-364.585
  20
86.844
  0
VERTEX
  8
MMIC_BondPad
  10
-364.081
  20
87.686
  0
VERTEX
  8
MMIC_BondPad
  10
-363.661
  20
88.573
  0
VERTEX
  8
MMIC_BondPad
  10
-363.331
  20
89.497
  0
VERTEX
  8
MMIC_BondPad
  10
-363.092
  20
90.449
  0
VERTEX
  8
MMIC_BondPad
  10
-362.948
  20
91.42
  0
VERTEX
  8
MMIC_BondPad
  10
-362.9
  20
92.4
  0
VERTEX
  8
MMIC_BondPad
  10
-362.9
  20
147.4
  0
VERTEX
  8
MMIC_BondPad
  10
-362.948
  20
148.38
  0
VERTEX
  8
MMIC_BondPad
  10
-363.092
  20
149.351
  0
VERTEX
  8
MMIC_BondPad
  10
-363.331
  20
150.303
  0
VERTEX
  8
MMIC_BondPad
  10
-363.661
  20
151.227
  0
VERTEX
  8
MMIC_BondPad
  10
-364.081
  20
152.114
  0
VERTEX
  8
MMIC_BondPad
  10
-364.585
  20
152.956
  0
VERTEX
  8
MMIC_BondPad
  10
-365.17
  20
153.744
  0
VERTEX
  8
MMIC_BondPad
  10
-365.829
  20
154.471
  0
VERTEX
  8
MMIC_BondPad
  10
-366.556
  20
155.13
  0
VERTEX
  8
MMIC_BondPad
  10
-367.344
  20
155.715
  0
VERTEX
  8
MMIC_BondPad
  10
-368.186
  20
156.219
  0
VERTEX
  8
MMIC_BondPad
  10
-369.073
  20
156.639
  0
VERTEX
  8
MMIC_BondPad
  10
-369.997
  20
156.969
  0
VERTEX
  8
MMIC_BondPad
  10
-370.949
  20
157.208
  0
VERTEX
  8
MMIC_BondPad
  10
-371.92
  20
157.352
  0
VERTEX
  8
MMIC_BondPad
  10
-372.9
  20
157.4
  0
VERTEX
  8
MMIC_BondPad
  10
-453.9
  20
157.4
  0
VERTEX
  8
MMIC_BondPad
  10
-454.88
  20
157.352
  0
VERTEX
  8
MMIC_BondPad
  10
-455.851
  20
157.208
  0
VERTEX
  8
MMIC_BondPad
  10
-456.803
  20
156.969
  0
VERTEX
  8
MMIC_BondPad
  10
-457.727
  20
156.639
  0
VERTEX
  8
MMIC_BondPad
  10
-458.614
  20
156.219
  0
VERTEX
  8
MMIC_BondPad
  10
-459.456
  20
155.715
  0
VERTEX
  8
MMIC_BondPad
  10
-460.244
  20
155.13
  0
VERTEX
  8
MMIC_BondPad
  10
-460.971
  20
154.471
  0
VERTEX
  8
MMIC_BondPad
  10
-461.63
  20
153.744
  0
VERTEX
  8
MMIC_BondPad
  10
-462.215
  20
152.956
  0
VERTEX
  8
MMIC_BondPad
  10
-462.719
  20
152.114
  0
VERTEX
  8
MMIC_BondPad
  10
-463.139
  20
151.227
  0
VERTEX
  8
MMIC_BondPad
  10
-463.469
  20
150.303
  0
VERTEX
  8
MMIC_BondPad
  10
-463.708
  20
149.351
  0
VERTEX
  8
MMIC_BondPad
  10
-463.852
  20
148.38
  0
VERTEX
  8
MMIC_BondPad
  10
-463.9
  20
147.4
  0
VERTEX
  8
MMIC_BondPad
  10
-463.9
  20
92.4
  0
VERTEX
  8
MMIC_BondPad
  10
-463.852
  20
91.42
  0
VERTEX
  8
MMIC_BondPad
  10
-463.708
  20
90.449
  0
SEQEND
  0
POLYLINE
  8
MMIC_BondPad
  70
1
  66
1
  0
VERTEX
  8
MMIC_BondPad
  10
359.531
  20
89.497
  0
VERTEX
  8
MMIC_BondPad
  10
359.861
  20
88.573
  0
VERTEX
  8
MMIC_BondPad
  10
360.281
  20
87.686
  0
VERTEX
  8
MMIC_BondPad
  10
360.785
  20
86.844
  0
VERTEX
  8
MMIC_BondPad
  10
361.37
  20
86.056
  0
VERTEX
  8
MMIC_BondPad
  10
362.029
  20
85.329
  0
VERTEX
  8
MMIC_BondPad
  10
362.756
  20
84.67
  0
VERTEX
  8
MMIC_BondPad
  10
363.544
  20
84.085
  0
VERTEX
  8
MMIC_BondPad
  10
364.386
  20
83.581
  0
VERTEX
  8
MMIC_BondPad
  10
365.273
  20
83.161
  0
VERTEX
  8
MMIC_BondPad
  10
366.197
  20
82.831
  0
VERTEX
  8
MMIC_BondPad
  10
367.149
  20
82.592
  0
VERTEX
  8
MMIC_BondPad
  10
368.12
  20
82.448
  0
VERTEX
  8
MMIC_BondPad
  10
369.1
  20
82.4
  0
VERTEX
  8
MMIC_BondPad
  10
450.1
  20
82.4
  0
VERTEX
  8
MMIC_BondPad
  10
451.08
  20
82.448
  0
VERTEX
  8
MMIC_BondPad
  10
452.051
  20
82.592
  0
VERTEX
  8
MMIC_BondPad
  10
453.003
  20
82.831
  0
VERTEX
  8
MMIC_BondPad
  10
453.927
  20
83.161
  0
VERTEX
  8
MMIC_BondPad
  10
454.814
  20
83.581
  0
VERTEX
  8
MMIC_BondPad
  10
455.656
  20
84.085
  0
VERTEX
  8
MMIC_BondPad
  10
456.444
  20
84.67
  0
VERTEX
  8
MMIC_BondPad
  10
457.171
  20
85.329
  0
VERTEX
  8
MMIC_BondPad
  10
457.83
  20
86.056
  0
VERTEX
  8
MMIC_BondPad
  10
458.415
  20
86.844
  0
VERTEX
  8
MMIC_BondPad
  10
458.919
  20
87.686
  0
VERTEX
  8
MMIC_BondPad
  10
459.339
  20
88.573
  0
VERTEX
  8
MMIC_BondPad
  10
459.669
  20
89.497
  0
VERTEX
  8
MMIC_BondPad
  10
459.908
  20
90.449
  0
VERTEX
  8
MMIC_BondPad
  10
460.052
  20
91.42
  0
VERTEX
  8
MMIC_BondPad
  10
460.1
  20
92.4
  0
VERTEX
  8
MMIC_BondPad
  10
460.1
  20
147.4
  0
VERTEX
  8
MMIC_BondPad
  10
460.052
  20
148.38
  0
VERTEX
  8
MMIC_BondPad
  10
459.908
  20
149.351
  0
VERTEX
  8
MMIC_BondPad
  10
459.669
  20
150.303
  0
VERTEX
  8
MMIC_BondPad
  10
459.339
  20
151.227
  0
VERTEX
  8
MMIC_BondPad
  10
458.919
  20
152.114
  0
VERTEX
  8
MMIC_BondPad
  10
458.415
  20
152.956
  0
VERTEX
  8
MMIC_BondPad
  10
457.83
  20
153.744
  0
VERTEX
  8
MMIC_BondPad
  10
457.171
  20
154.471
  0
VERTEX
  8
MMIC_BondPad
  10
456.444
  20
155.13
  0
VERTEX
  8
MMIC_BondPad
  10
455.656
  20
155.715
  0
VERTEX
  8
MMIC_BondPad
  10
454.814
  20
156.219
  0
VERTEX
  8
MMIC_BondPad
  10
453.927
  20
156.639
  0
VERTEX
  8
MMIC_BondPad
  10
453.003
  20
156.969
  0
VERTEX
  8
MMIC_BondPad
  10
452.051
  20
157.208
  0
VERTEX
  8
MMIC_BondPad
  10
451.08
  20
157.352
  0
VERTEX
  8
MMIC_BondPad
  10
450.1
  20
157.4
  0
VERTEX
  8
MMIC_BondPad
  10
369.1
  20
157.4
  0
VERTEX
  8
MMIC_BondPad
  10
368.12
  20
157.352
  0
VERTEX
  8
MMIC_BondPad
  10
367.149
  20
157.208
  0
VERTEX
  8
MMIC_BondPad
  10
366.197
  20
156.969
  0
VERTEX
  8
MMIC_BondPad
  10
365.273
  20
156.639
  0
VERTEX
  8
MMIC_BondPad
  10
364.386
  20
156.219
  0
VERTEX
  8
MMIC_BondPad
  10
363.544
  20
155.715
  0
VERTEX
  8
MMIC_BondPad
  10
362.756
  20
155.13
  0
VERTEX
  8
MMIC_BondPad
  10
362.029
  20
154.471
  0
VERTEX
  8
MMIC_BondPad
  10
361.37
  20
153.744
  0
VERTEX
  8
MMIC_BondPad
  10
360.785
  20
152.956
  0
VERTEX
  8
MMIC_BondPad
  10
360.281
  20
152.114
  0
VERTEX
  8
MMIC_BondPad
  10
359.861
  20
151.227
  0
VERTEX
  8
MMIC_BondPad
  10
359.531
  20
150.303
  0
VERTEX
  8
MMIC_BondPad
  10
359.292
  20
149.351
  0
VERTEX
  8
MMIC_BondPad
  10
359.148
  20
148.38
  0
VERTEX
  8
MMIC_BondPad
  10
359.1
  20
147.4
  0
VERTEX
  8
MMIC_BondPad
  10
359.1
  20
92.4
  0
VERTEX
  8
MMIC_BondPad
  10
359.148
  20
91.42
  0
VERTEX
  8
MMIC_BondPad
  10
359.292
  20
90.449
  0
SEQEND
  0
POLYLINE
  8
MMIC_BondPad
  70
1
  66
1
  0
VERTEX
  8
MMIC_BondPad
  10
-463.469
  20
-132.503
  0
VERTEX
  8
MMIC_BondPad
  10
-463.139
  20
-133.427
  0
VERTEX
  8
MMIC_BondPad
  10
-462.719
  20
-134.314
  0
VERTEX
  8
MMIC_BondPad
  10
-462.215
  20
-135.156
  0
VERTEX
  8
MMIC_BondPad
  10
-461.63
  20
-135.944
  0
VERTEX
  8
MMIC_BondPad
  10
-460.971
  20
-136.671
  0
VERTEX
  8
MMIC_BondPad
  10
-460.244
  20
-137.33
  0
VERTEX
  8
MMIC_BondPad
  10
-459.456
  20
-137.915
  0
VERTEX
  8
MMIC_BondPad
  10
-458.614
  20
-138.419
  0
VERTEX
  8
MMIC_BondPad
  10
-457.727
  20
-138.839
  0
VERTEX
  8
MMIC_BondPad
  10
-456.803
  20
-139.169
  0
VERTEX
  8
MMIC_BondPad
  10
-455.851
  20
-139.408
  0
VERTEX
  8
MMIC_BondPad
  10
-454.88
  20
-139.552
  0
VERTEX
  8
MMIC_BondPad
  10
-453.9
  20
-139.6
  0
VERTEX
  8
MMIC_BondPad
  10
-372.9
  20
-139.6
  0
VERTEX
  8
MMIC_BondPad
  10
-371.92
  20
-139.552
  0
VERTEX
  8
MMIC_BondPad
  10
-370.949
  20
-139.408
  0
VERTEX
  8
MMIC_BondPad
  10
-369.997
  20
-139.169
  0
VERTEX
  8
MMIC_BondPad
  10
-369.073
  20
-138.839
  0
VERTEX
  8
MMIC_BondPad
  10
-368.186
  20
-138.419
  0
VERTEX
  8
MMIC_BondPad
  10
-367.344
  20
-137.915
  0
VERTEX
  8
MMIC_BondPad
  10
-366.556
  20
-137.33
  0
VERTEX
  8
MMIC_BondPad
  10
-365.829
  20
-136.671
  0
VERTEX
  8
MMIC_BondPad
  10
-365.17
  20
-135.944
  0
VERTEX
  8
MMIC_BondPad
  10
-364.585
  20
-135.156
  0
VERTEX
  8
MMIC_BondPad
  10
-364.081
  20
-134.314
  0
VERTEX
  8
MMIC_BondPad
  10
-363.661
  20
-133.427
  0
VERTEX
  8
MMIC_BondPad
  10
-363.331
  20
-132.503
  0
VERTEX
  8
MMIC_BondPad
  10
-363.092
  20
-131.551
  0
VERTEX
  8
MMIC_BondPad
  10
-362.948
  20
-130.58
  0
VERTEX
  8
MMIC_BondPad
  10
-362.9
  20
-129.6
  0
VERTEX
  8
MMIC_BondPad
  10
-362.9
  20
50.4
  0
VERTEX
  8
MMIC_BondPad
  10
-362.948
  20
51.38
  0
VERTEX
  8
MMIC_BondPad
  10
-363.092
  20
52.351
  0
VERTEX
  8
MMIC_BondPad
  10
-363.331
  20
53.303
  0
VERTEX
  8
MMIC_BondPad
  10
-363.661
  20
54.227
  0
VERTEX
  8
MMIC_BondPad
  10
-364.081
  20
55.114
  0
VERTEX
  8
MMIC_BondPad
  10
-364.585
  20
55.956
  0
VERTEX
  8
MMIC_BondPad
  10
-365.17
  20
56.744
  0
VERTEX
  8
MMIC_BondPad
  10
-365.829
  20
57.471
  0
VERTEX
  8
MMIC_BondPad
  10
-366.556
  20
58.13
  0
VERTEX
  8
MMIC_BondPad
  10
-367.344
  20
58.715
  0
VERTEX
  8
MMIC_BondPad
  10
-368.186
  20
59.219
  0
VERTEX
  8
MMIC_BondPad
  10
-369.073
  20
59.639
  0
VERTEX
  8
MMIC_BondPad
  10
-369.997
  20
59.969
  0
VERTEX
  8
MMIC_BondPad
  10
-370.949
  20
60.208
  0
VERTEX
  8
MMIC_BondPad
  10
-371.92
  20
60.352
  0
VERTEX
  8
MMIC_BondPad
  10
-372.9
  20
60.4
  0
VERTEX
  8
MMIC_BondPad
  10
-453.9
  20
60.4
  0
VERTEX
  8
MMIC_BondPad
  10
-454.88
  20
60.352
  0
VERTEX
  8
MMIC_BondPad
  10
-455.851
  20
60.208
  0
VERTEX
  8
MMIC_BondPad
  10
-456.803
  20
59.969
  0
VERTEX
  8
MMIC_BondPad
  10
-457.727
  20
59.639
  0
VERTEX
  8
MMIC_BondPad
  10
-458.614
  20
59.219
  0
VERTEX
  8
MMIC_BondPad
  10
-459.456
  20
58.715
  0
VERTEX
  8
MMIC_BondPad
  10
-460.244
  20
58.13
  0
VERTEX
  8
MMIC_BondPad
  10
-460.971
  20
57.471
  0
VERTEX
  8
MMIC_BondPad
  10
-461.63
  20
56.744
  0
VERTEX
  8
MMIC_BondPad
  10
-462.215
  20
55.956
  0
VERTEX
  8
MMIC_BondPad
  10
-462.719
  20
55.114
  0
VERTEX
  8
MMIC_BondPad
  10
-463.139
  20
54.227
  0
VERTEX
  8
MMIC_BondPad
  10
-463.469
  20
53.303
  0
VERTEX
  8
MMIC_BondPad
  10
-463.708
  20
52.351
  0
VERTEX
  8
MMIC_BondPad
  10
-463.852
  20
51.38
  0
VERTEX
  8
MMIC_BondPad
  10
-463.9
  20
50.4
  0
VERTEX
  8
MMIC_BondPad
  10
-463.9
  20
-129.6
  0
VERTEX
  8
MMIC_BondPad
  10
-463.852
  20
-130.58
  0
VERTEX
  8
MMIC_BondPad
  10
-463.708
  20
-131.551
  0
SEQEND
  0
POLYLINE
  8
MMIC_BondPad
  70
1
  66
1
  0
VERTEX
  8
MMIC_BondPad
  10
-463.469
  20
-229.503
  0
VERTEX
  8
MMIC_BondPad
  10
-463.139
  20
-230.427
  0
VERTEX
  8
MMIC_BondPad
  10
-462.719
  20
-231.314
  0
VERTEX
  8
MMIC_BondPad
  10
-462.215
  20
-232.156
  0
VERTEX
  8
MMIC_BondPad
  10
-461.63
  20
-232.944
  0
VERTEX
  8
MMIC_BondPad
  10
-460.971
  20
-233.671
  0
VERTEX
  8
MMIC_BondPad
  10
-460.244
  20
-234.33
  0
VERTEX
  8
MMIC_BondPad
  10
-459.456
  20
-234.915
  0
VERTEX
  8
MMIC_BondPad
  10
-458.614
  20
-235.419
  0
VERTEX
  8
MMIC_BondPad
  10
-457.727
  20
-235.839
  0
VERTEX
  8
MMIC_BondPad
  10
-456.803
  20
-236.169
  0
VERTEX
  8
MMIC_BondPad
  10
-455.851
  20
-236.408
  0
VERTEX
  8
MMIC_BondPad
  10
-454.88
  20
-236.552
  0
VERTEX
  8
MMIC_BondPad
  10
-453.9
  20
-236.6
  0
VERTEX
  8
MMIC_BondPad
  10
-372.9
  20
-236.6
  0
VERTEX
  8
MMIC_BondPad
  10
-371.92
  20
-236.552
  0
VERTEX
  8
MMIC_BondPad
  10
-370.949
  20
-236.408
  0
VERTEX
  8
MMIC_BondPad
  10
-369.997
  20
-236.169
  0
VERTEX
  8
MMIC_BondPad
  10
-369.073
  20
-235.839
  0
VERTEX
  8
MMIC_BondPad
  10
-368.186
  20
-235.419
  0
VERTEX
  8
MMIC_BondPad
  10
-367.344
  20
-234.915
  0
VERTEX
  8
MMIC_BondPad
  10
-366.556
  20
-234.33
  0
VERTEX
  8
MMIC_BondPad
  10
-365.829
  20
-233.671
  0
VERTEX
  8
MMIC_BondPad
  10
-365.17
  20
-232.944
  0
VERTEX
  8
MMIC_BondPad
  10
-364.585
  20
-232.156
  0
VERTEX
  8
MMIC_BondPad
  10
-364.081
  20
-231.314
  0
VERTEX
  8
MMIC_BondPad
  10
-363.661
  20
-230.427
  0
VERTEX
  8
MMIC_BondPad
  10
-363.331
  20
-229.503
  0
VERTEX
  8
MMIC_BondPad
  10
-363.092
  20
-228.551
  0
VERTEX
  8
MMIC_BondPad
  10
-362.948
  20
-227.58
  0
VERTEX
  8
MMIC_BondPad
  10
-362.9
  20
-226.6
  0
VERTEX
  8
MMIC_BondPad
  10
-362.9
  20
-171.6
  0
VERTEX
  8
MMIC_BondPad
  10
-362.948
  20
-170.62
  0
VERTEX
  8
MMIC_BondPad
  10
-363.092
  20
-169.649
  0
VERTEX
  8
MMIC_BondPad
  10
-363.331
  20
-168.697
  0
VERTEX
  8
MMIC_BondPad
  10
-363.661
  20
-167.773
  0
VERTEX
  8
MMIC_BondPad
  10
-364.081
  20
-166.886
  0
VERTEX
  8
MMIC_BondPad
  10
-364.585
  20
-166.044
  0
VERTEX
  8
MMIC_BondPad
  10
-365.17
  20
-165.256
  0
VERTEX
  8
MMIC_BondPad
  10
-365.829
  20
-164.529
  0
VERTEX
  8
MMIC_BondPad
  10
-366.556
  20
-163.87
  0
VERTEX
  8
MMIC_BondPad
  10
-367.344
  20
-163.285
  0
VERTEX
  8
MMIC_BondPad
  10
-368.186
  20
-162.781
  0
VERTEX
  8
MMIC_BondPad
  10
-369.073
  20
-162.361
  0
VERTEX
  8
MMIC_BondPad
  10
-369.997
  20
-162.031
  0
VERTEX
  8
MMIC_BondPad
  10
-370.949
  20
-161.792
  0
VERTEX
  8
MMIC_BondPad
  10
-371.92
  20
-161.648
  0
VERTEX
  8
MMIC_BondPad
  10
-372.9
  20
-161.6
  0
VERTEX
  8
MMIC_BondPad
  10
-453.9
  20
-161.6
  0
VERTEX
  8
MMIC_BondPad
  10
-454.88
  20
-161.648
  0
VERTEX
  8
MMIC_BondPad
  10
-455.851
  20
-161.792
  0
VERTEX
  8
MMIC_BondPad
  10
-456.803
  20
-162.031
  0
VERTEX
  8
MMIC_BondPad
  10
-457.727
  20
-162.361
  0
VERTEX
  8
MMIC_BondPad
  10
-458.614
  20
-162.781
  0
VERTEX
  8
MMIC_BondPad
  10
-459.456
  20
-163.285
  0
VERTEX
  8
MMIC_BondPad
  10
-460.244
  20
-163.87
  0
VERTEX
  8
MMIC_BondPad
  10
-460.971
  20
-164.529
  0
VERTEX
  8
MMIC_BondPad
  10
-461.63
  20
-165.256
  0
VERTEX
  8
MMIC_BondPad
  10
-462.215
  20
-166.044
  0
VERTEX
  8
MMIC_BondPad
  10
-462.719
  20
-166.886
  0
VERTEX
  8
MMIC_BondPad
  10
-463.139
  20
-167.773
  0
VERTEX
  8
MMIC_BondPad
  10
-463.469
  20
-168.697
  0
VERTEX
  8
MMIC_BondPad
  10
-463.708
  20
-169.649
  0
VERTEX
  8
MMIC_BondPad
  10
-463.852
  20
-170.62
  0
VERTEX
  8
MMIC_BondPad
  10
-463.9
  20
-171.6
  0
VERTEX
  8
MMIC_BondPad
  10
-463.9
  20
-226.6
  0
VERTEX
  8
MMIC_BondPad
  10
-463.852
  20
-227.58
  0
VERTEX
  8
MMIC_BondPad
  10
-463.708
  20
-228.551
  0
SEQEND
  0
POLYLINE
  8
MMIC_BondPad
  70
1
  66
1
  0
VERTEX
  8
MMIC_BondPad
  10
359.531
  20
-132.503
  0
VERTEX
  8
MMIC_BondPad
  10
359.861
  20
-133.427
  0
VERTEX
  8
MMIC_BondPad
  10
360.281
  20
-134.314
  0
VERTEX
  8
MMIC_BondPad
  10
360.785
  20
-135.156
  0
VERTEX
  8
MMIC_BondPad
  10
361.37
  20
-135.944
  0
VERTEX
  8
MMIC_BondPad
  10
362.029
  20
-136.671
  0
VERTEX
  8
MMIC_BondPad
  10
362.756
  20
-137.33
  0
VERTEX
  8
MMIC_BondPad
  10
363.544
  20
-137.915
  0
VERTEX
  8
MMIC_BondPad
  10
364.386
  20
-138.419
  0
VERTEX
  8
MMIC_BondPad
  10
365.273
  20
-138.839
  0
VERTEX
  8
MMIC_BondPad
  10
366.197
  20
-139.169
  0
VERTEX
  8
MMIC_BondPad
  10
367.149
  20
-139.408
  0
VERTEX
  8
MMIC_BondPad
  10
368.12
  20
-139.552
  0
VERTEX
  8
MMIC_BondPad
  10
369.1
  20
-139.6
  0
VERTEX
  8
MMIC_BondPad
  10
450.1
  20
-139.6
  0
VERTEX
  8
MMIC_BondPad
  10
451.08
  20
-139.552
  0
VERTEX
  8
MMIC_BondPad
  10
452.051
  20
-139.408
  0
VERTEX
  8
MMIC_BondPad
  10
453.003
  20
-139.169
  0
VERTEX
  8
MMIC_BondPad
  10
453.927
  20
-138.839
  0
VERTEX
  8
MMIC_BondPad
  10
454.814
  20
-138.419
  0
VERTEX
  8
MMIC_BondPad
  10
455.656
  20
-137.915
  0
VERTEX
  8
MMIC_BondPad
  10
456.444
  20
-137.33
  0
VERTEX
  8
MMIC_BondPad
  10
457.171
  20
-136.671
  0
VERTEX
  8
MMIC_BondPad
  10
457.83
  20
-135.944
  0
VERTEX
  8
MMIC_BondPad
  10
458.415
  20
-135.156
  0
VERTEX
  8
MMIC_BondPad
  10
458.919
  20
-134.314
  0
VERTEX
  8
MMIC_BondPad
  10
459.339
  20
-133.427
  0
VERTEX
  8
MMIC_BondPad
  10
459.669
  20
-132.503
  0
VERTEX
  8
MMIC_BondPad
  10
459.908
  20
-131.551
  0
VERTEX
  8
MMIC_BondPad
  10
460.052
  20
-130.58
  0
VERTEX
  8
MMIC_BondPad
  10
460.1
  20
-129.6
  0
VERTEX
  8
MMIC_BondPad
  10
460.1
  20
50.4
  0
VERTEX
  8
MMIC_BondPad
  10
460.052
  20
51.38
  0
VERTEX
  8
MMIC_BondPad
  10
459.908
  20
52.351
  0
VERTEX
  8
MMIC_BondPad
  10
459.669
  20
53.303
  0
VERTEX
  8
MMIC_BondPad
  10
459.339
  20
54.227
  0
VERTEX
  8
MMIC_BondPad
  10
458.919
  20
55.114
  0
VERTEX
  8
MMIC_BondPad
  10
458.415
  20
55.956
  0
VERTEX
  8
MMIC_BondPad
  10
457.83
  20
56.744
  0
VERTEX
  8
MMIC_BondPad
  10
457.171
  20
57.471
  0
VERTEX
  8
MMIC_BondPad
  10
456.444
  20
58.13
  0
VERTEX
  8
MMIC_BondPad
  10
455.656
  20
58.715
  0
VERTEX
  8
MMIC_BondPad
  10
454.814
  20
59.219
  0
VERTEX
  8
MMIC_BondPad
  10
453.927
  20
59.639
  0
VERTEX
  8
MMIC_BondPad
  10
453.003
  20
59.969
  0
VERTEX
  8
MMIC_BondPad
  10
452.051
  20
60.208
  0
VERTEX
  8
MMIC_BondPad
  10
451.08
  20
60.352
  0
VERTEX
  8
MMIC_BondPad
  10
450.1
  20
60.4
  0
VERTEX
  8
MMIC_BondPad
  10
369.1
  20
60.4
  0
VERTEX
  8
MMIC_BondPad
  10
368.12
  20
60.352
  0
VERTEX
  8
MMIC_BondPad
  10
367.149
  20
60.208
  0
VERTEX
  8
MMIC_BondPad
  10
366.197
  20
59.969
  0
VERTEX
  8
MMIC_BondPad
  10
365.273
  20
59.639
  0
VERTEX
  8
MMIC_BondPad
  10
364.386
  20
59.219
  0
VERTEX
  8
MMIC_BondPad
  10
363.544
  20
58.715
  0
VERTEX
  8
MMIC_BondPad
  10
362.756
  20
58.13
  0
VERTEX
  8
MMIC_BondPad
  10
362.029
  20
57.471
  0
VERTEX
  8
MMIC_BondPad
  10
361.37
  20
56.744
  0
VERTEX
  8
MMIC_BondPad
  10
360.785
  20
55.956
  0
VERTEX
  8
MMIC_BondPad
  10
360.281
  20
55.114
  0
VERTEX
  8
MMIC_BondPad
  10
359.861
  20
54.227
  0
VERTEX
  8
MMIC_BondPad
  10
359.531
  20
53.303
  0
VERTEX
  8
MMIC_BondPad
  10
359.292
  20
52.351
  0
VERTEX
  8
MMIC_BondPad
  10
359.148
  20
51.38
  0
VERTEX
  8
MMIC_BondPad
  10
359.1
  20
50.4
  0
VERTEX
  8
MMIC_BondPad
  10
359.1
  20
-129.6
  0
VERTEX
  8
MMIC_BondPad
  10
359.148
  20
-130.58
  0
VERTEX
  8
MMIC_BondPad
  10
359.292
  20
-131.551
  0
SEQEND
  0
POLYLINE
  8
MMIC_BondPad
  70
1
  66
1
  0
VERTEX
  8
MMIC_BondPad
  10
359.531
  20
-229.503
  0
VERTEX
  8
MMIC_BondPad
  10
359.861
  20
-230.427
  0
VERTEX
  8
MMIC_BondPad
  10
360.281
  20
-231.314
  0
VERTEX
  8
MMIC_BondPad
  10
360.785
  20
-232.156
  0
VERTEX
  8
MMIC_BondPad
  10
361.37
  20
-232.944
  0
VERTEX
  8
MMIC_BondPad
  10
362.029
  20
-233.671
  0
VERTEX
  8
MMIC_BondPad
  10
362.756
  20
-234.33
  0
VERTEX
  8
MMIC_BondPad
  10
363.544
  20
-234.915
  0
VERTEX
  8
MMIC_BondPad
  10
364.386
  20
-235.419
  0
VERTEX
  8
MMIC_BondPad
  10
365.273
  20
-235.839
  0
VERTEX
  8
MMIC_BondPad
  10
366.197
  20
-236.169
  0
VERTEX
  8
MMIC_BondPad
  10
367.149
  20
-236.408
  0
VERTEX
  8
MMIC_BondPad
  10
368.12
  20
-236.552
  0
VERTEX
  8
MMIC_BondPad
  10
369.1
  20
-236.6
  0
VERTEX
  8
MMIC_BondPad
  10
450.1
  20
-236.6
  0
VERTEX
  8
MMIC_BondPad
  10
451.08
  20
-236.552
  0
VERTEX
  8
MMIC_BondPad
  10
452.051
  20
-236.408
  0
VERTEX
  8
MMIC_BondPad
  10
453.003
  20
-236.169
  0
VERTEX
  8
MMIC_BondPad
  10
453.927
  20
-235.839
  0
VERTEX
  8
MMIC_BondPad
  10
454.814
  20
-235.419
  0
VERTEX
  8
MMIC_BondPad
  10
455.656
  20
-234.915
  0
VERTEX
  8
MMIC_BondPad
  10
456.444
  20
-234.33
  0
VERTEX
  8
MMIC_BondPad
  10
457.171
  20
-233.671
  0
VERTEX
  8
MMIC_BondPad
  10
457.83
  20
-232.944
  0
VERTEX
  8
MMIC_BondPad
  10
458.415
  20
-232.156
  0
VERTEX
  8
MMIC_BondPad
  10
458.919
  20
-231.314
  0
VERTEX
  8
MMIC_BondPad
  10
459.339
  20
-230.427
  0
VERTEX
  8
MMIC_BondPad
  10
459.669
  20
-229.503
  0
VERTEX
  8
MMIC_BondPad
  10
459.908
  20
-228.551
  0
VERTEX
  8
MMIC_BondPad
  10
460.052
  20
-227.58
  0
VERTEX
  8
MMIC_BondPad
  10
460.1
  20
-226.6
  0
VERTEX
  8
MMIC_BondPad
  10
460.1
  20
-171.6
  0
VERTEX
  8
MMIC_BondPad
  10
460.052
  20
-170.62
  0
VERTEX
  8
MMIC_BondPad
  10
459.908
  20
-169.649
  0
VERTEX
  8
MMIC_BondPad
  10
459.669
  20
-168.697
  0
VERTEX
  8
MMIC_BondPad
  10
459.339
  20
-167.773
  0
VERTEX
  8
MMIC_BondPad
  10
458.919
  20
-166.886
  0
VERTEX
  8
MMIC_BondPad
  10
458.415
  20
-166.044
  0
VERTEX
  8
MMIC_BondPad
  10
457.83
  20
-165.256
  0
VERTEX
  8
MMIC_BondPad
  10
457.171
  20
-164.529
  0
VERTEX
  8
MMIC_BondPad
  10
456.444
  20
-163.87
  0
VERTEX
  8
MMIC_BondPad
  10
455.656
  20
-163.285
  0
VERTEX
  8
MMIC_BondPad
  10
454.814
  20
-162.781
  0
VERTEX
  8
MMIC_BondPad
  10
453.927
  20
-162.361
  0
VERTEX
  8
MMIC_BondPad
  10
453.003
  20
-162.031
  0
VERTEX
  8
MMIC_BondPad
  10
452.051
  20
-161.792
  0
VERTEX
  8
MMIC_BondPad
  10
451.08
  20
-161.648
  0
VERTEX
  8
MMIC_BondPad
  10
450.1
  20
-161.6
  0
VERTEX
  8
MMIC_BondPad
  10
369.1
  20
-161.6
  0
VERTEX
  8
MMIC_BondPad
  10
368.12
  20
-161.648
  0
VERTEX
  8
MMIC_BondPad
  10
367.149
  20
-161.792
  0
VERTEX
  8
MMIC_BondPad
  10
366.197
  20
-162.031
  0
VERTEX
  8
MMIC_BondPad
  10
365.273
  20
-162.361
  0
VERTEX
  8
MMIC_BondPad
  10
364.386
  20
-162.781
  0
VERTEX
  8
MMIC_BondPad
  10
363.544
  20
-163.285
  0
VERTEX
  8
MMIC_BondPad
  10
362.756
  20
-163.87
  0
VERTEX
  8
MMIC_BondPad
  10
362.029
  20
-164.529
  0
VERTEX
  8
MMIC_BondPad
  10
361.37
  20
-165.256
  0
VERTEX
  8
MMIC_BondPad
  10
360.785
  20
-166.044
  0
VERTEX
  8
MMIC_BondPad
  10
360.281
  20
-166.886
  0
VERTEX
  8
MMIC_BondPad
  10
359.861
  20
-167.773
  0
VERTEX
  8
MMIC_BondPad
  10
359.531
  20
-168.697
  0
VERTEX
  8
MMIC_BondPad
  10
359.292
  20
-169.649
  0
VERTEX
  8
MMIC_BondPad
  10
359.148
  20
-170.62
  0
VERTEX
  8
MMIC_BondPad
  10
359.1
  20
-171.6
  0
VERTEX
  8
MMIC_BondPad
  10
359.1
  20
-226.6
  0
VERTEX
  8
MMIC_BondPad
  10
359.148
  20
-227.58
  0
VERTEX
  8
MMIC_BondPad
  10
359.292
  20
-228.551
  0
SEQEND
  0
POLYLINE
  8
MMIC_OverCoat
  70
1
  66
1
  0
VERTEX
  8
MMIC_OverCoat
  10
447.503
  20
88.331
  0
VERTEX
  8
MMIC_OverCoat
  10
448.427
  20
88.661
  0
VERTEX
  8
MMIC_OverCoat
  10
449.314
  20
89.081
  0
VERTEX
  8
MMIC_OverCoat
  10
450.156
  20
89.585
  0
VERTEX
  8
MMIC_OverCoat
  10
450.944
  20
90.17
  0
VERTEX
  8
MMIC_OverCoat
  10
451.671
  20
90.829
  0
VERTEX
  8
MMIC_OverCoat
  10
452.33
  20
91.556
  0
VERTEX
  8
MMIC_OverCoat
  10
452.915
  20
92.344
  0
VERTEX
  8
MMIC_OverCoat
  10
453.419
  20
93.186
  0
VERTEX
  8
MMIC_OverCoat
  10
453.839
  20
94.073
  0
VERTEX
  8
MMIC_OverCoat
  10
454.169
  20
94.997
  0
VERTEX
  8
MMIC_OverCoat
  10
454.408
  20
95.949
  0
VERTEX
  8
MMIC_OverCoat
  10
454.552
  20
96.92
  0
VERTEX
  8
MMIC_OverCoat
  10
454.6
  20
97.9
  0
VERTEX
  8
MMIC_OverCoat
  10
454.6
  20
141.9
  0
VERTEX
  8
MMIC_OverCoat
  10
454.552
  20
142.88
  0
VERTEX
  8
MMIC_OverCoat
  10
454.408
  20
143.851
  0
VERTEX
  8
MMIC_OverCoat
  10
454.169
  20
144.803
  0
VERTEX
  8
MMIC_OverCoat
  10
453.839
  20
145.727
  0
VERTEX
  8
MMIC_OverCoat
  10
453.419
  20
146.614
  0
VERTEX
  8
MMIC_OverCoat
  10
452.915
  20
147.456
  0
VERTEX
  8
MMIC_OverCoat
  10
452.33
  20
148.244
  0
VERTEX
  8
MMIC_OverCoat
  10
451.671
  20
148.971
  0
VERTEX
  8
MMIC_OverCoat
  10
450.944
  20
149.63
  0
VERTEX
  8
MMIC_OverCoat
  10
450.156
  20
150.215
  0
VERTEX
  8
MMIC_OverCoat
  10
449.314
  20
150.719
  0
VERTEX
  8
MMIC_OverCoat
  10
448.427
  20
151.139
  0
VERTEX
  8
MMIC_OverCoat
  10
447.503
  20
151.469
  0
VERTEX
  8
MMIC_OverCoat
  10
446.551
  20
151.708
  0
VERTEX
  8
MMIC_OverCoat
  10
445.58
  20
151.852
  0
VERTEX
  8
MMIC_OverCoat
  10
444.6
  20
151.9
  0
VERTEX
  8
MMIC_OverCoat
  10
374.6
  20
151.9
  0
VERTEX
  8
MMIC_OverCoat
  10
373.62
  20
151.852
  0
VERTEX
  8
MMIC_OverCoat
  10
372.649
  20
151.708
  0
VERTEX
  8
MMIC_OverCoat
  10
371.697
  20
151.469
  0
VERTEX
  8
MMIC_OverCoat
  10
370.773
  20
151.139
  0
VERTEX
  8
MMIC_OverCoat
  10
369.886
  20
150.719
  0
VERTEX
  8
MMIC_OverCoat
  10
369.044
  20
150.215
  0
VERTEX
  8
MMIC_OverCoat
  10
368.256
  20
149.63
  0
VERTEX
  8
MMIC_OverCoat
  10
367.529
  20
148.971
  0
VERTEX
  8
MMIC_OverCoat
  10
366.87
  20
148.244
  0
VERTEX
  8
MMIC_OverCoat
  10
366.285
  20
147.456
  0
VERTEX
  8
MMIC_OverCoat
  10
365.781
  20
146.614
  0
VERTEX
  8
MMIC_OverCoat
  10
365.361
  20
145.727
  0
VERTEX
  8
MMIC_OverCoat
  10
365.031
  20
144.803
  0
VERTEX
  8
MMIC_OverCoat
  10
364.792
  20
143.851
  0
VERTEX
  8
MMIC_OverCoat
  10
364.648
  20
142.88
  0
VERTEX
  8
MMIC_OverCoat
  10
364.6
  20
141.9
  0
VERTEX
  8
MMIC_OverCoat
  10
364.6
  20
97.9
  0
VERTEX
  8
MMIC_OverCoat
  10
364.648
  20
96.92
  0
VERTEX
  8
MMIC_OverCoat
  10
364.792
  20
95.949
  0
VERTEX
  8
MMIC_OverCoat
  10
365.031
  20
94.997
  0
VERTEX
  8
MMIC_OverCoat
  10
365.361
  20
94.073
  0
VERTEX
  8
MMIC_OverCoat
  10
365.781
  20
93.186
  0
VERTEX
  8
MMIC_OverCoat
  10
366.285
  20
92.344
  0
VERTEX
  8
MMIC_OverCoat
  10
366.87
  20
91.556
  0
VERTEX
  8
MMIC_OverCoat
  10
367.529
  20
90.829
  0
VERTEX
  8
MMIC_OverCoat
  10
368.256
  20
90.17
  0
VERTEX
  8
MMIC_OverCoat
  10
369.044
  20
89.585
  0
VERTEX
  8
MMIC_OverCoat
  10
369.886
  20
89.081
  0
VERTEX
  8
MMIC_OverCoat
  10
370.773
  20
88.661
  0
VERTEX
  8
MMIC_OverCoat
  10
371.697
  20
88.331
  0
VERTEX
  8
MMIC_OverCoat
  10
372.649
  20
88.092
  0
VERTEX
  8
MMIC_OverCoat
  10
373.62
  20
87.948
  0
VERTEX
  8
MMIC_OverCoat
  10
374.6
  20
87.9
  0
VERTEX
  8
MMIC_OverCoat
  10
444.6
  20
87.9
  0
VERTEX
  8
MMIC_OverCoat
  10
445.58
  20
87.948
  0
VERTEX
  8
MMIC_OverCoat
  10
446.551
  20
88.092
  0
SEQEND
  0
POLYLINE
  8
MMIC_OverCoat
  70
1
  66
1
  0
VERTEX
  8
MMIC_OverCoat
  10
447.503
  20
-133.669
  0
VERTEX
  8
MMIC_OverCoat
  10
448.427
  20
-133.339
  0
VERTEX
  8
MMIC_OverCoat
  10
449.314
  20
-132.919
  0
VERTEX
  8
MMIC_OverCoat
  10
450.156
  20
-132.415
  0
VERTEX
  8
MMIC_OverCoat
  10
450.944
  20
-131.83
  0
VERTEX
  8
MMIC_OverCoat
  10
451.671
  20
-131.171
  0
VERTEX
  8
MMIC_OverCoat
  10
452.33
  20
-130.444
  0
VERTEX
  8
MMIC_OverCoat
  10
452.915
  20
-129.656
  0
VERTEX
  8
MMIC_OverCoat
  10
453.419
  20
-128.814
  0
VERTEX
  8
MMIC_OverCoat
  10
453.839
  20
-127.927
  0
VERTEX
  8
MMIC_OverCoat
  10
454.169
  20
-127.003
  0
VERTEX
  8
MMIC_OverCoat
  10
454.408
  20
-126.051
  0
VERTEX
  8
MMIC_OverCoat
  10
454.552
  20
-125.08
  0
VERTEX
  8
MMIC_OverCoat
  10
454.6
  20
-124.1
  0
VERTEX
  8
MMIC_OverCoat
  10
454.6
  20
44.9
  0
VERTEX
  8
MMIC_OverCoat
  10
454.552
  20
45.88
  0
VERTEX
  8
MMIC_OverCoat
  10
454.408
  20
46.851
  0
VERTEX
  8
MMIC_OverCoat
  10
454.169
  20
47.803
  0
VERTEX
  8
MMIC_OverCoat
  10
453.839
  20
48.727
  0
VERTEX
  8
MMIC_OverCoat
  10
453.419
  20
49.614
  0
VERTEX
  8
MMIC_OverCoat
  10
452.915
  20
50.456
  0
VERTEX
  8
MMIC_OverCoat
  10
452.33
  20
51.244
  0
VERTEX
  8
MMIC_OverCoat
  10
451.671
  20
51.971
  0
VERTEX
  8
MMIC_OverCoat
  10
450.944
  20
52.63
  0
VERTEX
  8
MMIC_OverCoat
  10
450.156
  20
53.215
  0
VERTEX
  8
MMIC_OverCoat
  10
449.314
  20
53.719
  0
VERTEX
  8
MMIC_OverCoat
  10
448.427
  20
54.139
  0
VERTEX
  8
MMIC_OverCoat
  10
447.503
  20
54.469
  0
VERTEX
  8
MMIC_OverCoat
  10
446.551
  20
54.708
  0
VERTEX
  8
MMIC_OverCoat
  10
445.58
  20
54.852
  0
VERTEX
  8
MMIC_OverCoat
  10
444.6
  20
54.9
  0
VERTEX
  8
MMIC_OverCoat
  10
374.6
  20
54.9
  0
VERTEX
  8
MMIC_OverCoat
  10
373.62
  20
54.852
  0
VERTEX
  8
MMIC_OverCoat
  10
372.649
  20
54.708
  0
VERTEX
  8
MMIC_OverCoat
  10
371.697
  20
54.469
  0
VERTEX
  8
MMIC_OverCoat
  10
370.773
  20
54.139
  0
VERTEX
  8
MMIC_OverCoat
  10
369.886
  20
53.719
  0
VERTEX
  8
MMIC_OverCoat
  10
369.044
  20
53.215
  0
VERTEX
  8
MMIC_OverCoat
  10
368.256
  20
52.63
  0
VERTEX
  8
MMIC_OverCoat
  10
367.529
  20
51.971
  0
VERTEX
  8
MMIC_OverCoat
  10
366.87
  20
51.244
  0
VERTEX
  8
MMIC_OverCoat
  10
366.285
  20
50.456
  0
VERTEX
  8
MMIC_OverCoat
  10
365.781
  20
49.614
  0
VERTEX
  8
MMIC_OverCoat
  10
365.361
  20
48.727
  0
VERTEX
  8
MMIC_OverCoat
  10
365.031
  20
47.803
  0
VERTEX
  8
MMIC_OverCoat
  10
364.792
  20
46.851
  0
VERTEX
  8
MMIC_OverCoat
  10
364.648
  20
45.88
  0
VERTEX
  8
MMIC_OverCoat
  10
364.6
  20
44.9
  0
VERTEX
  8
MMIC_OverCoat
  10
364.6
  20
-124.1
  0
VERTEX
  8
MMIC_OverCoat
  10
364.648
  20
-125.08
  0
VERTEX
  8
MMIC_OverCoat
  10
364.792
  20
-126.051
  0
VERTEX
  8
MMIC_OverCoat
  10
365.031
  20
-127.003
  0
VERTEX
  8
MMIC_OverCoat
  10
365.361
  20
-127.927
  0
VERTEX
  8
MMIC_OverCoat
  10
365.781
  20
-128.814
  0
VERTEX
  8
MMIC_OverCoat
  10
366.285
  20
-129.656
  0
VERTEX
  8
MMIC_OverCoat
  10
366.87
  20
-130.444
  0
VERTEX
  8
MMIC_OverCoat
  10
367.529
  20
-131.171
  0
VERTEX
  8
MMIC_OverCoat
  10
368.256
  20
-131.83
  0
VERTEX
  8
MMIC_OverCoat
  10
369.044
  20
-132.415
  0
VERTEX
  8
MMIC_OverCoat
  10
369.886
  20
-132.919
  0
VERTEX
  8
MMIC_OverCoat
  10
370.773
  20
-133.339
  0
VERTEX
  8
MMIC_OverCoat
  10
371.697
  20
-133.669
  0
VERTEX
  8
MMIC_OverCoat
  10
372.649
  20
-133.908
  0
VERTEX
  8
MMIC_OverCoat
  10
373.62
  20
-134.052
  0
VERTEX
  8
MMIC_OverCoat
  10
374.6
  20
-134.1
  0
VERTEX
  8
MMIC_OverCoat
  10
444.6
  20
-134.1
  0
VERTEX
  8
MMIC_OverCoat
  10
445.58
  20
-134.052
  0
VERTEX
  8
MMIC_OverCoat
  10
446.551
  20
-133.908
  0
SEQEND
  0
POLYLINE
  8
MMIC_OverCoat
  70
1
  66
1
  0
VERTEX
  8
MMIC_OverCoat
  10
447.503
  20
-230.669
  0
VERTEX
  8
MMIC_OverCoat
  10
448.427
  20
-230.339
  0
VERTEX
  8
MMIC_OverCoat
  10
449.314
  20
-229.919
  0
VERTEX
  8
MMIC_OverCoat
  10
450.156
  20
-229.415
  0
VERTEX
  8
MMIC_OverCoat
  10
450.944
  20
-228.83
  0
VERTEX
  8
MMIC_OverCoat
  10
451.671
  20
-228.171
  0
VERTEX
  8
MMIC_OverCoat
  10
452.33
  20
-227.444
  0
VERTEX
  8
MMIC_OverCoat
  10
452.915
  20
-226.656
  0
VERTEX
  8
MMIC_OverCoat
  10
453.419
  20
-225.814
  0
VERTEX
  8
MMIC_OverCoat
  10
453.839
  20
-224.927
  0
VERTEX
  8
MMIC_OverCoat
  10
454.169
  20
-224.003
  0
VERTEX
  8
MMIC_OverCoat
  10
454.408
  20
-223.051
  0
VERTEX
  8
MMIC_OverCoat
  10
454.552
  20
-222.08
  0
VERTEX
  8
MMIC_OverCoat
  10
454.6
  20
-221.1
  0
VERTEX
  8
MMIC_OverCoat
  10
454.6
  20
-177.1
  0
VERTEX
  8
MMIC_OverCoat
  10
454.552
  20
-176.12
  0
VERTEX
  8
MMIC_OverCoat
  10
454.408
  20
-175.149
  0
VERTEX
  8
MMIC_OverCoat
  10
454.169
  20
-174.197
  0
VERTEX
  8
MMIC_OverCoat
  10
453.839
  20
-173.273
  0
VERTEX
  8
MMIC_OverCoat
  10
453.419
  20
-172.386
  0
VERTEX
  8
MMIC_OverCoat
  10
452.915
  20
-171.544
  0
VERTEX
  8
MMIC_OverCoat
  10
452.33
  20
-170.756
  0
VERTEX
  8
MMIC_OverCoat
  10
451.671
  20
-170.029
  0
VERTEX
  8
MMIC_OverCoat
  10
450.944
  20
-169.37
  0
VERTEX
  8
MMIC_OverCoat
  10
450.156
  20
-168.785
  0
VERTEX
  8
MMIC_OverCoat
  10
449.314
  20
-168.281
  0
VERTEX
  8
MMIC_OverCoat
  10
448.427
  20
-167.861
  0
VERTEX
  8
MMIC_OverCoat
  10
447.503
  20
-167.531
  0
VERTEX
  8
MMIC_OverCoat
  10
446.551
  20
-167.292
  0
VERTEX
  8
MMIC_OverCoat
  10
445.58
  20
-167.148
  0
VERTEX
  8
MMIC_OverCoat
  10
444.6
  20
-167.1
  0
VERTEX
  8
MMIC_OverCoat
  10
374.6
  20
-167.1
  0
VERTEX
  8
MMIC_OverCoat
  10
373.62
  20
-167.148
  0
VERTEX
  8
MMIC_OverCoat
  10
372.649
  20
-167.292
  0
VERTEX
  8
MMIC_OverCoat
  10
371.697
  20
-167.531
  0
VERTEX
  8
MMIC_OverCoat
  10
370.773
  20
-167.861
  0
VERTEX
  8
MMIC_OverCoat
  10
369.886
  20
-168.281
  0
VERTEX
  8
MMIC_OverCoat
  10
369.044
  20
-168.785
  0
VERTEX
  8
MMIC_OverCoat
  10
368.256
  20
-169.37
  0
VERTEX
  8
MMIC_OverCoat
  10
367.529
  20
-170.029
  0
VERTEX
  8
MMIC_OverCoat
  10
366.87
  20
-170.756
  0
VERTEX
  8
MMIC_OverCoat
  10
366.285
  20
-171.544
  0
VERTEX
  8
MMIC_OverCoat
  10
365.781
  20
-172.386
  0
VERTEX
  8
MMIC_OverCoat
  10
365.361
  20
-173.273
  0
VERTEX
  8
MMIC_OverCoat
  10
365.031
  20
-174.197
  0
VERTEX
  8
MMIC_OverCoat
  10
364.792
  20
-175.149
  0
VERTEX
  8
MMIC_OverCoat
  10
364.648
  20
-176.12
  0
VERTEX
  8
MMIC_OverCoat
  10
364.6
  20
-177.1
  0
VERTEX
  8
MMIC_OverCoat
  10
364.6
  20
-221.1
  0
VERTEX
  8
MMIC_OverCoat
  10
364.648
  20
-222.08
  0
VERTEX
  8
MMIC_OverCoat
  10
364.792
  20
-223.051
  0
VERTEX
  8
MMIC_OverCoat
  10
365.031
  20
-224.003
  0
VERTEX
  8
MMIC_OverCoat
  10
365.361
  20
-224.927
  0
VERTEX
  8
MMIC_OverCoat
  10
365.781
  20
-225.814
  0
VERTEX
  8
MMIC_OverCoat
  10
366.285
  20
-226.656
  0
VERTEX
  8
MMIC_OverCoat
  10
366.87
  20
-227.444
  0
VERTEX
  8
MMIC_OverCoat
  10
367.529
  20
-228.171
  0
VERTEX
  8
MMIC_OverCoat
  10
368.256
  20
-228.83
  0
VERTEX
  8
MMIC_OverCoat
  10
369.044
  20
-229.415
  0
VERTEX
  8
MMIC_OverCoat
  10
369.886
  20
-229.919
  0
VERTEX
  8
MMIC_OverCoat
  10
370.773
  20
-230.339
  0
VERTEX
  8
MMIC_OverCoat
  10
371.697
  20
-230.669
  0
VERTEX
  8
MMIC_OverCoat
  10
372.649
  20
-230.908
  0
VERTEX
  8
MMIC_OverCoat
  10
373.62
  20
-231.052
  0
VERTEX
  8
MMIC_OverCoat
  10
374.6
  20
-231.1
  0
VERTEX
  8
MMIC_OverCoat
  10
444.6
  20
-231.1
  0
VERTEX
  8
MMIC_OverCoat
  10
445.58
  20
-231.052
  0
VERTEX
  8
MMIC_OverCoat
  10
446.551
  20
-230.908
  0
SEQEND
  0
POLYLINE
  8
MMIC_OverCoat
  70
1
  66
1
  0
VERTEX
  8
MMIC_OverCoat
  10
-375.497
  20
88.331
  0
VERTEX
  8
MMIC_OverCoat
  10
-374.573
  20
88.661
  0
VERTEX
  8
MMIC_OverCoat
  10
-373.686
  20
89.081
  0
VERTEX
  8
MMIC_OverCoat
  10
-372.844
  20
89.585
  0
VERTEX
  8
MMIC_OverCoat
  10
-372.056
  20
90.17
  0
VERTEX
  8
MMIC_OverCoat
  10
-371.329
  20
90.829
  0
VERTEX
  8
MMIC_OverCoat
  10
-370.67
  20
91.556
  0
VERTEX
  8
MMIC_OverCoat
  10
-370.085
  20
92.344
  0
VERTEX
  8
MMIC_OverCoat
  10
-369.581
  20
93.186
  0
VERTEX
  8
MMIC_OverCoat
  10
-369.161
  20
94.073
  0
VERTEX
  8
MMIC_OverCoat
  10
-368.831
  20
94.997
  0
VERTEX
  8
MMIC_OverCoat
  10
-368.592
  20
95.949
  0
VERTEX
  8
MMIC_OverCoat
  10
-368.448
  20
96.92
  0
VERTEX
  8
MMIC_OverCoat
  10
-368.4
  20
97.9
  0
VERTEX
  8
MMIC_OverCoat
  10
-368.4
  20
141.9
  0
VERTEX
  8
MMIC_OverCoat
  10
-368.448
  20
142.88
  0
VERTEX
  8
MMIC_OverCoat
  10
-368.592
  20
143.851
  0
VERTEX
  8
MMIC_OverCoat
  10
-368.831
  20
144.803
  0
VERTEX
  8
MMIC_OverCoat
  10
-369.161
  20
145.727
  0
VERTEX
  8
MMIC_OverCoat
  10
-369.581
  20
146.614
  0
VERTEX
  8
MMIC_OverCoat
  10
-370.085
  20
147.456
  0
VERTEX
  8
MMIC_OverCoat
  10
-370.67
  20
148.244
  0
VERTEX
  8
MMIC_OverCoat
  10
-371.329
  20
148.971
  0
VERTEX
  8
MMIC_OverCoat
  10
-372.056
  20
149.63
  0
VERTEX
  8
MMIC_OverCoat
  10
-372.844
  20
150.215
  0
VERTEX
  8
MMIC_OverCoat
  10
-373.686
  20
150.719
  0
VERTEX
  8
MMIC_OverCoat
  10
-374.573
  20
151.139
  0
VERTEX
  8
MMIC_OverCoat
  10
-375.497
  20
151.469
  0
VERTEX
  8
MMIC_OverCoat
  10
-376.449
  20
151.708
  0
VERTEX
  8
MMIC_OverCoat
  10
-377.42
  20
151.852
  0
VERTEX
  8
MMIC_OverCoat
  10
-378.4
  20
151.9
  0
VERTEX
  8
MMIC_OverCoat
  10
-448.4
  20
151.9
  0
VERTEX
  8
MMIC_OverCoat
  10
-449.38
  20
151.852
  0
VERTEX
  8
MMIC_OverCoat
  10
-450.351
  20
151.708
  0
VERTEX
  8
MMIC_OverCoat
  10
-451.303
  20
151.469
  0
VERTEX
  8
MMIC_OverCoat
  10
-452.227
  20
151.139
  0
VERTEX
  8
MMIC_OverCoat
  10
-453.114
  20
150.719
  0
VERTEX
  8
MMIC_OverCoat
  10
-453.956
  20
150.215
  0
VERTEX
  8
MMIC_OverCoat
  10
-454.744
  20
149.63
  0
VERTEX
  8
MMIC_OverCoat
  10
-455.471
  20
148.971
  0
VERTEX
  8
MMIC_OverCoat
  10
-456.13
  20
148.244
  0
VERTEX
  8
MMIC_OverCoat
  10
-456.715
  20
147.456
  0
VERTEX
  8
MMIC_OverCoat
  10
-457.219
  20
146.614
  0
VERTEX
  8
MMIC_OverCoat
  10
-457.639
  20
145.727
  0
VERTEX
  8
MMIC_OverCoat
  10
-457.969
  20
144.803
  0
VERTEX
  8
MMIC_OverCoat
  10
-458.208
  20
143.851
  0
VERTEX
  8
MMIC_OverCoat
  10
-458.352
  20
142.88
  0
VERTEX
  8
MMIC_OverCoat
  10
-458.4
  20
141.9
  0
VERTEX
  8
MMIC_OverCoat
  10
-458.4
  20
97.9
  0
VERTEX
  8
MMIC_OverCoat
  10
-458.352
  20
96.92
  0
VERTEX
  8
MMIC_OverCoat
  10
-458.208
  20
95.949
  0
VERTEX
  8
MMIC_OverCoat
  10
-457.969
  20
94.997
  0
VERTEX
  8
MMIC_OverCoat
  10
-457.639
  20
94.073
  0
VERTEX
  8
MMIC_OverCoat
  10
-457.219
  20
93.186
  0
VERTEX
  8
MMIC_OverCoat
  10
-456.715
  20
92.344
  0
VERTEX
  8
MMIC_OverCoat
  10
-456.13
  20
91.556
  0
VERTEX
  8
MMIC_OverCoat
  10
-455.471
  20
90.829
  0
VERTEX
  8
MMIC_OverCoat
  10
-454.744
  20
90.17
  0
VERTEX
  8
MMIC_OverCoat
  10
-453.956
  20
89.585
  0
VERTEX
  8
MMIC_OverCoat
  10
-453.114
  20
89.081
  0
VERTEX
  8
MMIC_OverCoat
  10
-452.227
  20
88.661
  0
VERTEX
  8
MMIC_OverCoat
  10
-451.303
  20
88.331
  0
VERTEX
  8
MMIC_OverCoat
  10
-450.351
  20
88.092
  0
VERTEX
  8
MMIC_OverCoat
  10
-449.38
  20
87.948
  0
VERTEX
  8
MMIC_OverCoat
  10
-448.4
  20
87.9
  0
VERTEX
  8
MMIC_OverCoat
  10
-378.4
  20
87.9
  0
VERTEX
  8
MMIC_OverCoat
  10
-377.42
  20
87.948
  0
VERTEX
  8
MMIC_OverCoat
  10
-376.449
  20
88.092
  0
SEQEND
  0
POLYLINE
  8
MMIC_OverCoat
  70
1
  66
1
  0
VERTEX
  8
MMIC_OverCoat
  10
-375.497
  20
-230.669
  0
VERTEX
  8
MMIC_OverCoat
  10
-374.573
  20
-230.339
  0
VERTEX
  8
MMIC_OverCoat
  10
-373.686
  20
-229.919
  0
VERTEX
  8
MMIC_OverCoat
  10
-372.844
  20
-229.415
  0
VERTEX
  8
MMIC_OverCoat
  10
-372.056
  20
-228.83
  0
VERTEX
  8
MMIC_OverCoat
  10
-371.329
  20
-228.171
  0
VERTEX
  8
MMIC_OverCoat
  10
-370.67
  20
-227.444
  0
VERTEX
  8
MMIC_OverCoat
  10
-370.085
  20
-226.656
  0
VERTEX
  8
MMIC_OverCoat
  10
-369.581
  20
-225.814
  0
VERTEX
  8
MMIC_OverCoat
  10
-369.161
  20
-224.927
  0
VERTEX
  8
MMIC_OverCoat
  10
-368.831
  20
-224.003
  0
VERTEX
  8
MMIC_OverCoat
  10
-368.592
  20
-223.051
  0
VERTEX
  8
MMIC_OverCoat
  10
-368.448
  20
-222.08
  0
VERTEX
  8
MMIC_OverCoat
  10
-368.4
  20
-221.1
  0
VERTEX
  8
MMIC_OverCoat
  10
-368.4
  20
-177.1
  0
VERTEX
  8
MMIC_OverCoat
  10
-368.448
  20
-176.12
  0
VERTEX
  8
MMIC_OverCoat
  10
-368.592
  20
-175.149
  0
VERTEX
  8
MMIC_OverCoat
  10
-368.831
  20
-174.197
  0
VERTEX
  8
MMIC_OverCoat
  10
-369.161
  20
-173.273
  0
VERTEX
  8
MMIC_OverCoat
  10
-369.581
  20
-172.386
  0
VERTEX
  8
MMIC_OverCoat
  10
-370.085
  20
-171.544
  0
VERTEX
  8
MMIC_OverCoat
  10
-370.67
  20
-170.756
  0
VERTEX
  8
MMIC_OverCoat
  10
-371.329
  20
-170.029
  0
VERTEX
  8
MMIC_OverCoat
  10
-372.056
  20
-169.37
  0
VERTEX
  8
MMIC_OverCoat
  10
-372.844
  20
-168.785
  0
VERTEX
  8
MMIC_OverCoat
  10
-373.686
  20
-168.281
  0
VERTEX
  8
MMIC_OverCoat
  10
-374.573
  20
-167.861
  0
VERTEX
  8
MMIC_OverCoat
  10
-375.497
  20
-167.531
  0
VERTEX
  8
MMIC_OverCoat
  10
-376.449
  20
-167.292
  0
VERTEX
  8
MMIC_OverCoat
  10
-377.42
  20
-167.148
  0
VERTEX
  8
MMIC_OverCoat
  10
-378.4
  20
-167.1
  0
VERTEX
  8
MMIC_OverCoat
  10
-448.4
  20
-167.1
  0
VERTEX
  8
MMIC_OverCoat
  10
-449.38
  20
-167.148
  0
VERTEX
  8
MMIC_OverCoat
  10
-450.351
  20
-167.292
  0
VERTEX
  8
MMIC_OverCoat
  10
-451.303
  20
-167.531
  0
VERTEX
  8
MMIC_OverCoat
  10
-452.227
  20
-167.861
  0
VERTEX
  8
MMIC_OverCoat
  10
-453.114
  20
-168.281
  0
VERTEX
  8
MMIC_OverCoat
  10
-453.956
  20
-168.785
  0
VERTEX
  8
MMIC_OverCoat
  10
-454.744
  20
-169.37
  0
VERTEX
  8
MMIC_OverCoat
  10
-455.471
  20
-170.029
  0
VERTEX
  8
MMIC_OverCoat
  10
-456.13
  20
-170.756
  0
VERTEX
  8
MMIC_OverCoat
  10
-456.715
  20
-171.544
  0
VERTEX
  8
MMIC_OverCoat
  10
-457.219
  20
-172.386
  0
VERTEX
  8
MMIC_OverCoat
  10
-457.639
  20
-173.273
  0
VERTEX
  8
MMIC_OverCoat
  10
-457.969
  20
-174.197
  0
VERTEX
  8
MMIC_OverCoat
  10
-458.208
  20
-175.149
  0
VERTEX
  8
MMIC_OverCoat
  10
-458.352
  20
-176.12
  0
VERTEX
  8
MMIC_OverCoat
  10
-458.4
  20
-177.1
  0
VERTEX
  8
MMIC_OverCoat
  10
-458.4
  20
-221.1
  0
VERTEX
  8
MMIC_OverCoat
  10
-458.352
  20
-222.08
  0
VERTEX
  8
MMIC_OverCoat
  10
-458.208
  20
-223.051
  0
VERTEX
  8
MMIC_OverCoat
  10
-457.969
  20
-224.003
  0
VERTEX
  8
MMIC_OverCoat
  10
-457.639
  20
-224.927
  0
VERTEX
  8
MMIC_OverCoat
  10
-457.219
  20
-225.814
  0
VERTEX
  8
MMIC_OverCoat
  10
-456.715
  20
-226.656
  0
VERTEX
  8
MMIC_OverCoat
  10
-456.13
  20
-227.444
  0
VERTEX
  8
MMIC_OverCoat
  10
-455.471
  20
-228.171
  0
VERTEX
  8
MMIC_OverCoat
  10
-454.744
  20
-228.83
  0
VERTEX
  8
MMIC_OverCoat
  10
-453.956
  20
-229.415
  0
VERTEX
  8
MMIC_OverCoat
  10
-453.114
  20
-229.919
  0
VERTEX
  8
MMIC_OverCoat
  10
-452.227
  20
-230.339
  0
VERTEX
  8
MMIC_OverCoat
  10
-451.303
  20
-230.669
  0
VERTEX
  8
MMIC_OverCoat
  10
-450.351
  20
-230.908
  0
VERTEX
  8
MMIC_OverCoat
  10
-449.38
  20
-231.052
  0
VERTEX
  8
MMIC_OverCoat
  10
-448.4
  20
-231.1
  0
VERTEX
  8
MMIC_OverCoat
  10
-378.4
  20
-231.1
  0
VERTEX
  8
MMIC_OverCoat
  10
-377.42
  20
-231.052
  0
VERTEX
  8
MMIC_OverCoat
  10
-376.449
  20
-230.908
  0
SEQEND
  0
POLYLINE
  8
MMIC_OverCoat
  70
1
  66
1
  0
VERTEX
  8
MMIC_OverCoat
  10
-375.497
  20
-133.669
  0
VERTEX
  8
MMIC_OverCoat
  10
-374.573
  20
-133.339
  0
VERTEX
  8
MMIC_OverCoat
  10
-373.686
  20
-132.919
  0
VERTEX
  8
MMIC_OverCoat
  10
-372.844
  20
-132.415
  0
VERTEX
  8
MMIC_OverCoat
  10
-372.056
  20
-131.83
  0
VERTEX
  8
MMIC_OverCoat
  10
-371.329
  20
-131.171
  0
VERTEX
  8
MMIC_OverCoat
  10
-370.67
  20
-130.444
  0
VERTEX
  8
MMIC_OverCoat
  10
-370.085
  20
-129.656
  0
VERTEX
  8
MMIC_OverCoat
  10
-369.581
  20
-128.814
  0
VERTEX
  8
MMIC_OverCoat
  10
-369.161
  20
-127.927
  0
VERTEX
  8
MMIC_OverCoat
  10
-368.831
  20
-127.003
  0
VERTEX
  8
MMIC_OverCoat
  10
-368.592
  20
-126.051
  0
VERTEX
  8
MMIC_OverCoat
  10
-368.448
  20
-125.08
  0
VERTEX
  8
MMIC_OverCoat
  10
-368.4
  20
-124.1
  0
VERTEX
  8
MMIC_OverCoat
  10
-368.4
  20
44.9
  0
VERTEX
  8
MMIC_OverCoat
  10
-368.448
  20
45.88
  0
VERTEX
  8
MMIC_OverCoat
  10
-368.592
  20
46.851
  0
VERTEX
  8
MMIC_OverCoat
  10
-368.831
  20
47.803
  0
VERTEX
  8
MMIC_OverCoat
  10
-369.161
  20
48.727
  0
VERTEX
  8
MMIC_OverCoat
  10
-369.581
  20
49.614
  0
VERTEX
  8
MMIC_OverCoat
  10
-370.085
  20
50.456
  0
VERTEX
  8
MMIC_OverCoat
  10
-370.67
  20
51.244
  0
VERTEX
  8
MMIC_OverCoat
  10
-371.329
  20
51.971
  0
VERTEX
  8
MMIC_OverCoat
  10
-372.056
  20
52.63
  0
VERTEX
  8
MMIC_OverCoat
  10
-372.844
  20
53.215
  0
VERTEX
  8
MMIC_OverCoat
  10
-373.686
  20
53.719
  0
VERTEX
  8
MMIC_OverCoat
  10
-374.573
  20
54.139
  0
VERTEX
  8
MMIC_OverCoat
  10
-375.497
  20
54.469
  0
VERTEX
  8
MMIC_OverCoat
  10
-376.449
  20
54.708
  0
VERTEX
  8
MMIC_OverCoat
  10
-377.42
  20
54.852
  0
VERTEX
  8
MMIC_OverCoat
  10
-378.4
  20
54.9
  0
VERTEX
  8
MMIC_OverCoat
  10
-448.4
  20
54.9
  0
VERTEX
  8
MMIC_OverCoat
  10
-449.38
  20
54.852
  0
VERTEX
  8
MMIC_OverCoat
  10
-450.351
  20
54.708
  0
VERTEX
  8
MMIC_OverCoat
  10
-451.303
  20
54.469
  0
VERTEX
  8
MMIC_OverCoat
  10
-452.227
  20
54.139
  0
VERTEX
  8
MMIC_OverCoat
  10
-453.114
  20
53.719
  0
VERTEX
  8
MMIC_OverCoat
  10
-453.956
  20
53.215
  0
VERTEX
  8
MMIC_OverCoat
  10
-454.744
  20
52.63
  0
VERTEX
  8
MMIC_OverCoat
  10
-455.471
  20
51.971
  0
VERTEX
  8
MMIC_OverCoat
  10
-456.13
  20
51.244
  0
VERTEX
  8
MMIC_OverCoat
  10
-456.715
  20
50.456
  0
VERTEX
  8
MMIC_OverCoat
  10
-457.219
  20
49.614
  0
VERTEX
  8
MMIC_OverCoat
  10
-457.639
  20
48.727
  0
VERTEX
  8
MMIC_OverCoat
  10
-457.969
  20
47.803
  0
VERTEX
  8
MMIC_OverCoat
  10
-458.208
  20
46.851
  0
VERTEX
  8
MMIC_OverCoat
  10
-458.352
  20
45.88
  0
VERTEX
  8
MMIC_OverCoat
  10
-458.4
  20
44.9
  0
VERTEX
  8
MMIC_OverCoat
  10
-458.4
  20
-124.1
  0
VERTEX
  8
MMIC_OverCoat
  10
-458.352
  20
-125.08
  0
VERTEX
  8
MMIC_OverCoat
  10
-458.208
  20
-126.051
  0
VERTEX
  8
MMIC_OverCoat
  10
-457.969
  20
-127.003
  0
VERTEX
  8
MMIC_OverCoat
  10
-457.639
  20
-127.927
  0
VERTEX
  8
MMIC_OverCoat
  10
-457.219
  20
-128.814
  0
VERTEX
  8
MMIC_OverCoat
  10
-456.715
  20
-129.656
  0
VERTEX
  8
MMIC_OverCoat
  10
-456.13
  20
-130.444
  0
VERTEX
  8
MMIC_OverCoat
  10
-455.471
  20
-131.171
  0
VERTEX
  8
MMIC_OverCoat
  10
-454.744
  20
-131.83
  0
VERTEX
  8
MMIC_OverCoat
  10
-453.956
  20
-132.415
  0
VERTEX
  8
MMIC_OverCoat
  10
-453.114
  20
-132.919
  0
VERTEX
  8
MMIC_OverCoat
  10
-452.227
  20
-133.339
  0
VERTEX
  8
MMIC_OverCoat
  10
-451.303
  20
-133.669
  0
VERTEX
  8
MMIC_OverCoat
  10
-450.351
  20
-133.908
  0
VERTEX
  8
MMIC_OverCoat
  10
-449.38
  20
-134.052
  0
VERTEX
  8
MMIC_OverCoat
  10
-448.4
  20
-134.1
  0
VERTEX
  8
MMIC_OverCoat
  10
-378.4
  20
-134.1
  0
VERTEX
  8
MMIC_OverCoat
  10
-377.42
  20
-134.052
  0
VERTEX
  8
MMIC_OverCoat
  10
-376.449
  20
-133.908
  0
SEQEND
  0
POLYLINE
  8
MMIC_Via
  70
1
  66
1
  0
VERTEX
  8
MMIC_Via
  10
-436.9
  20
-280.4
  0
VERTEX
  8
MMIC_Via
  10
-436.828
  20
-281.87
  0
VERTEX
  8
MMIC_Via
  10
-436.612
  20
-283.326
  0
VERTEX
  8
MMIC_Via
  10
-436.254
  20
-284.754
  0
VERTEX
  8
MMIC_Via
  10
-435.758
  20
-286.14
  0
VERTEX
  8
MMIC_Via
  10
-435.129
  20
-287.471
  0
VERTEX
  8
MMIC_Via
  10
-434.372
  20
-288.734
  0
VERTEX
  8
MMIC_Via
  10
-433.495
  20
-289.916
  0
VERTEX
  8
MMIC_Via
  10
-432.507
  20
-291.007
  0
VERTEX
  8
MMIC_Via
  10
-431.416
  20
-291.995
  0
VERTEX
  8
MMIC_Via
  10
-430.234
  20
-292.872
  0
VERTEX
  8
MMIC_Via
  10
-428.971
  20
-293.629
  0
VERTEX
  8
MMIC_Via
  10
-427.64
  20
-294.258
  0
VERTEX
  8
MMIC_Via
  10
-426.254
  20
-294.754
  0
VERTEX
  8
MMIC_Via
  10
-424.826
  20
-295.112
  0
VERTEX
  8
MMIC_Via
  10
-423.37
  20
-295.328
  0
VERTEX
  8
MMIC_Via
  10
-421.9
  20
-295.4
  0
VERTEX
  8
MMIC_Via
  10
-391.9
  20
-295.4
  0
VERTEX
  8
MMIC_Via
  10
-390.43
  20
-295.328
  0
VERTEX
  8
MMIC_Via
  10
-388.974
  20
-295.112
  0
VERTEX
  8
MMIC_Via
  10
-387.546
  20
-294.754
  0
VERTEX
  8
MMIC_Via
  10
-386.16
  20
-294.258
  0
VERTEX
  8
MMIC_Via
  10
-384.829
  20
-293.629
  0
VERTEX
  8
MMIC_Via
  10
-383.566
  20
-292.872
  0
VERTEX
  8
MMIC_Via
  10
-382.384
  20
-291.995
  0
VERTEX
  8
MMIC_Via
  10
-381.293
  20
-291.007
  0
VERTEX
  8
MMIC_Via
  10
-380.305
  20
-289.916
  0
VERTEX
  8
MMIC_Via
  10
-379.428
  20
-288.734
  0
VERTEX
  8
MMIC_Via
  10
-378.671
  20
-287.471
  0
VERTEX
  8
MMIC_Via
  10
-378.042
  20
-286.14
  0
VERTEX
  8
MMIC_Via
  10
-377.546
  20
-284.754
  0
VERTEX
  8
MMIC_Via
  10
-377.188
  20
-283.326
  0
VERTEX
  8
MMIC_Via
  10
-376.972
  20
-281.87
  0
VERTEX
  8
MMIC_Via
  10
-376.9
  20
-280.4
  0
VERTEX
  8
MMIC_Via
  10
-376.972
  20
-278.93
  0
VERTEX
  8
MMIC_Via
  10
-377.188
  20
-277.474
  0
VERTEX
  8
MMIC_Via
  10
-377.546
  20
-276.046
  0
VERTEX
  8
MMIC_Via
  10
-378.042
  20
-274.66
  0
VERTEX
  8
MMIC_Via
  10
-378.671
  20
-273.329
  0
VERTEX
  8
MMIC_Via
  10
-379.428
  20
-272.066
  0
VERTEX
  8
MMIC_Via
  10
-380.305
  20
-270.884
  0
VERTEX
  8
MMIC_Via
  10
-381.293
  20
-269.793
  0
VERTEX
  8
MMIC_Via
  10
-382.384
  20
-268.805
  0
VERTEX
  8
MMIC_Via
  10
-383.566
  20
-267.928
  0
VERTEX
  8
MMIC_Via
  10
-384.829
  20
-267.171
  0
VERTEX
  8
MMIC_Via
  10
-386.16
  20
-266.542
  0
VERTEX
  8
MMIC_Via
  10
-387.546
  20
-266.046
  0
VERTEX
  8
MMIC_Via
  10
-388.974
  20
-265.688
  0
VERTEX
  8
MMIC_Via
  10
-390.43
  20
-265.472
  0
VERTEX
  8
MMIC_Via
  10
-391.9
  20
-265.4
  0
VERTEX
  8
MMIC_Via
  10
-421.9
  20
-265.4
  0
VERTEX
  8
MMIC_Via
  10
-423.37
  20
-265.472
  0
VERTEX
  8
MMIC_Via
  10
-424.826
  20
-265.688
  0
VERTEX
  8
MMIC_Via
  10
-426.254
  20
-266.046
  0
VERTEX
  8
MMIC_Via
  10
-427.64
  20
-266.542
  0
VERTEX
  8
MMIC_Via
  10
-428.971
  20
-267.171
  0
VERTEX
  8
MMIC_Via
  10
-430.234
  20
-267.928
  0
VERTEX
  8
MMIC_Via
  10
-431.416
  20
-268.805
  0
VERTEX
  8
MMIC_Via
  10
-432.507
  20
-269.793
  0
VERTEX
  8
MMIC_Via
  10
-433.495
  20
-270.884
  0
VERTEX
  8
MMIC_Via
  10
-434.372
  20
-272.066
  0
VERTEX
  8
MMIC_Via
  10
-435.129
  20
-273.329
  0
VERTEX
  8
MMIC_Via
  10
-435.758
  20
-274.66
  0
VERTEX
  8
MMIC_Via
  10
-436.254
  20
-276.046
  0
VERTEX
  8
MMIC_Via
  10
-436.612
  20
-277.474
  0
VERTEX
  8
MMIC_Via
  10
-436.828
  20
-278.93
  0
SEQEND
  0
POLYLINE
  8
MMIC_Via
  70
1
  66
1
  0
VERTEX
  8
MMIC_Via
  10
373.1
  20
-280.4
  0
VERTEX
  8
MMIC_Via
  10
373.172
  20
-281.87
  0
VERTEX
  8
MMIC_Via
  10
373.388
  20
-283.326
  0
VERTEX
  8
MMIC_Via
  10
373.746
  20
-284.754
  0
VERTEX
  8
MMIC_Via
  10
374.242
  20
-286.14
  0
VERTEX
  8
MMIC_Via
  10
374.871
  20
-287.471
  0
VERTEX
  8
MMIC_Via
  10
375.628
  20
-288.734
  0
VERTEX
  8
MMIC_Via
  10
376.505
  20
-289.916
  0
VERTEX
  8
MMIC_Via
  10
377.493
  20
-291.007
  0
VERTEX
  8
MMIC_Via
  10
378.584
  20
-291.995
  0
VERTEX
  8
MMIC_Via
  10
379.766
  20
-292.872
  0
VERTEX
  8
MMIC_Via
  10
381.029
  20
-293.629
  0
VERTEX
  8
MMIC_Via
  10
382.36
  20
-294.258
  0
VERTEX
  8
MMIC_Via
  10
383.746
  20
-294.754
  0
VERTEX
  8
MMIC_Via
  10
385.174
  20
-295.112
  0
VERTEX
  8
MMIC_Via
  10
386.63
  20
-295.328
  0
VERTEX
  8
MMIC_Via
  10
388.1
  20
-295.4
  0
VERTEX
  8
MMIC_Via
  10
418.1
  20
-295.4
  0
VERTEX
  8
MMIC_Via
  10
419.57
  20
-295.328
  0
VERTEX
  8
MMIC_Via
  10
421.026
  20
-295.112
  0
VERTEX
  8
MMIC_Via
  10
422.454
  20
-294.754
  0
VERTEX
  8
MMIC_Via
  10
423.84
  20
-294.258
  0
VERTEX
  8
MMIC_Via
  10
425.171
  20
-293.629
  0
VERTEX
  8
MMIC_Via
  10
426.434
  20
-292.872
  0
VERTEX
  8
MMIC_Via
  10
427.616
  20
-291.995
  0
VERTEX
  8
MMIC_Via
  10
428.707
  20
-291.007
  0
VERTEX
  8
MMIC_Via
  10
429.695
  20
-289.916
  0
VERTEX
  8
MMIC_Via
  10
430.572
  20
-288.734
  0
VERTEX
  8
MMIC_Via
  10
431.329
  20
-287.471
  0
VERTEX
  8
MMIC_Via
  10
431.958
  20
-286.14
  0
VERTEX
  8
MMIC_Via
  10
432.454
  20
-284.754
  0
VERTEX
  8
MMIC_Via
  10
432.812
  20
-283.326
  0
VERTEX
  8
MMIC_Via
  10
433.028
  20
-281.87
  0
VERTEX
  8
MMIC_Via
  10
433.1
  20
-280.4
  0
VERTEX
  8
MMIC_Via
  10
433.028
  20
-278.93
  0
VERTEX
  8
MMIC_Via
  10
432.812
  20
-277.474
  0
VERTEX
  8
MMIC_Via
  10
432.454
  20
-276.046
  0
VERTEX
  8
MMIC_Via
  10
431.958
  20
-274.66
  0
VERTEX
  8
MMIC_Via
  10
431.329
  20
-273.329
  0
VERTEX
  8
MMIC_Via
  10
430.572
  20
-272.066
  0
VERTEX
  8
MMIC_Via
  10
429.695
  20
-270.884
  0
VERTEX
  8
MMIC_Via
  10
428.707
  20
-269.793
  0
VERTEX
  8
MMIC_Via
  10
427.616
  20
-268.805
  0
VERTEX
  8
MMIC_Via
  10
426.434
  20
-267.928
  0
VERTEX
  8
MMIC_Via
  10
425.171
  20
-267.171
  0
VERTEX
  8
MMIC_Via
  10
423.84
  20
-266.542
  0
VERTEX
  8
MMIC_Via
  10
422.454
  20
-266.046
  0
VERTEX
  8
MMIC_Via
  10
421.026
  20
-265.688
  0
VERTEX
  8
MMIC_Via
  10
419.57
  20
-265.472
  0
VERTEX
  8
MMIC_Via
  10
418.1
  20
-265.4
  0
VERTEX
  8
MMIC_Via
  10
388.1
  20
-265.4
  0
VERTEX
  8
MMIC_Via
  10
386.63
  20
-265.472
  0
VERTEX
  8
MMIC_Via
  10
385.174
  20
-265.688
  0
VERTEX
  8
MMIC_Via
  10
383.746
  20
-266.046
  0
VERTEX
  8
MMIC_Via
  10
382.36
  20
-266.542
  0
VERTEX
  8
MMIC_Via
  10
381.029
  20
-267.171
  0
VERTEX
  8
MMIC_Via
  10
379.766
  20
-267.928
  0
VERTEX
  8
MMIC_Via
  10
378.584
  20
-268.805
  0
VERTEX
  8
MMIC_Via
  10
377.493
  20
-269.793
  0
VERTEX
  8
MMIC_Via
  10
376.505
  20
-270.884
  0
VERTEX
  8
MMIC_Via
  10
375.628
  20
-272.066
  0
VERTEX
  8
MMIC_Via
  10
374.871
  20
-273.329
  0
VERTEX
  8
MMIC_Via
  10
374.242
  20
-274.66
  0
VERTEX
  8
MMIC_Via
  10
373.746
  20
-276.046
  0
VERTEX
  8
MMIC_Via
  10
373.388
  20
-277.474
  0
VERTEX
  8
MMIC_Via
  10
373.172
  20
-278.93
  0
SEQEND
  0
POLYLINE
  8
MMIC_Via
  70
1
  66
1
  0
VERTEX
  8
MMIC_Via
  10
373.1
  20
201.2
  0
VERTEX
  8
MMIC_Via
  10
373.172
  20
199.73
  0
VERTEX
  8
MMIC_Via
  10
373.388
  20
198.274
  0
VERTEX
  8
MMIC_Via
  10
373.746
  20
196.846
  0
VERTEX
  8
MMIC_Via
  10
374.242
  20
195.46
  0
VERTEX
  8
MMIC_Via
  10
374.871
  20
194.129
  0
VERTEX
  8
MMIC_Via
  10
375.628
  20
192.866
  0
VERTEX
  8
MMIC_Via
  10
376.505
  20
191.684
  0
VERTEX
  8
MMIC_Via
  10
377.493
  20
190.593
  0
VERTEX
  8
MMIC_Via
  10
378.584
  20
189.605
  0
VERTEX
  8
MMIC_Via
  10
379.766
  20
188.728
  0
VERTEX
  8
MMIC_Via
  10
381.029
  20
187.971
  0
VERTEX
  8
MMIC_Via
  10
382.36
  20
187.342
  0
VERTEX
  8
MMIC_Via
  10
383.746
  20
186.846
  0
VERTEX
  8
MMIC_Via
  10
385.174
  20
186.488
  0
VERTEX
  8
MMIC_Via
  10
386.63
  20
186.272
  0
VERTEX
  8
MMIC_Via
  10
388.1
  20
186.2
  0
VERTEX
  8
MMIC_Via
  10
418.1
  20
186.2
  0
VERTEX
  8
MMIC_Via
  10
419.57
  20
186.272
  0
VERTEX
  8
MMIC_Via
  10
421.026
  20
186.488
  0
VERTEX
  8
MMIC_Via
  10
422.454
  20
186.846
  0
VERTEX
  8
MMIC_Via
  10
423.84
  20
187.342
  0
VERTEX
  8
MMIC_Via
  10
425.171
  20
187.971
  0
VERTEX
  8
MMIC_Via
  10
426.434
  20
188.728
  0
VERTEX
  8
MMIC_Via
  10
427.616
  20
189.605
  0
VERTEX
  8
MMIC_Via
  10
428.707
  20
190.593
  0
VERTEX
  8
MMIC_Via
  10
429.695
  20
191.684
  0
VERTEX
  8
MMIC_Via
  10
430.572
  20
192.866
  0
VERTEX
  8
MMIC_Via
  10
431.329
  20
194.129
  0
VERTEX
  8
MMIC_Via
  10
431.958
  20
195.46
  0
VERTEX
  8
MMIC_Via
  10
432.454
  20
196.846
  0
VERTEX
  8
MMIC_Via
  10
432.812
  20
198.274
  0
VERTEX
  8
MMIC_Via
  10
433.028
  20
199.73
  0
VERTEX
  8
MMIC_Via
  10
433.1
  20
201.2
  0
VERTEX
  8
MMIC_Via
  10
433.028
  20
202.67
  0
VERTEX
  8
MMIC_Via
  10
432.812
  20
204.126
  0
VERTEX
  8
MMIC_Via
  10
432.454
  20
205.554
  0
VERTEX
  8
MMIC_Via
  10
431.958
  20
206.94
  0
VERTEX
  8
MMIC_Via
  10
431.329
  20
208.271
  0
VERTEX
  8
MMIC_Via
  10
430.572
  20
209.534
  0
VERTEX
  8
MMIC_Via
  10
429.695
  20
210.716
  0
VERTEX
  8
MMIC_Via
  10
428.707
  20
211.807
  0
VERTEX
  8
MMIC_Via
  10
427.616
  20
212.795
  0
VERTEX
  8
MMIC_Via
  10
426.434
  20
213.672
  0
VERTEX
  8
MMIC_Via
  10
425.171
  20
214.429
  0
VERTEX
  8
MMIC_Via
  10
423.84
  20
215.058
  0
VERTEX
  8
MMIC_Via
  10
422.454
  20
215.554
  0
VERTEX
  8
MMIC_Via
  10
421.026
  20
215.912
  0
VERTEX
  8
MMIC_Via
  10
419.57
  20
216.128
  0
VERTEX
  8
MMIC_Via
  10
418.1
  20
216.2
  0
VERTEX
  8
MMIC_Via
  10
388.1
  20
216.2
  0
VERTEX
  8
MMIC_Via
  10
386.63
  20
216.128
  0
VERTEX
  8
MMIC_Via
  10
385.174
  20
215.912
  0
VERTEX
  8
MMIC_Via
  10
383.746
  20
215.554
  0
VERTEX
  8
MMIC_Via
  10
382.36
  20
215.058
  0
VERTEX
  8
MMIC_Via
  10
381.029
  20
214.429
  0
VERTEX
  8
MMIC_Via
  10
379.766
  20
213.672
  0
VERTEX
  8
MMIC_Via
  10
378.584
  20
212.795
  0
VERTEX
  8
MMIC_Via
  10
377.493
  20
211.807
  0
VERTEX
  8
MMIC_Via
  10
376.505
  20
210.716
  0
VERTEX
  8
MMIC_Via
  10
375.628
  20
209.534
  0
VERTEX
  8
MMIC_Via
  10
374.871
  20
208.271
  0
VERTEX
  8
MMIC_Via
  10
374.242
  20
206.94
  0
VERTEX
  8
MMIC_Via
  10
373.746
  20
205.554
  0
VERTEX
  8
MMIC_Via
  10
373.388
  20
204.126
  0
VERTEX
  8
MMIC_Via
  10
373.172
  20
202.67
  0
SEQEND
  0
POLYLINE
  8
MMIC_Via
  70
1
  66
1
  0
VERTEX
  8
MMIC_Via
  10
-436.9
  20
201.2
  0
VERTEX
  8
MMIC_Via
  10
-436.828
  20
199.73
  0
VERTEX
  8
MMIC_Via
  10
-436.612
  20
198.274
  0
VERTEX
  8
MMIC_Via
  10
-436.254
  20
196.846
  0
VERTEX
  8
MMIC_Via
  10
-435.758
  20
195.46
  0
VERTEX
  8
MMIC_Via
  10
-435.129
  20
194.129
  0
VERTEX
  8
MMIC_Via
  10
-434.372
  20
192.866
  0
VERTEX
  8
MMIC_Via
  10
-433.495
  20
191.684
  0
VERTEX
  8
MMIC_Via
  10
-432.507
  20
190.593
  0
VERTEX
  8
MMIC_Via
  10
-431.416
  20
189.605
  0
VERTEX
  8
MMIC_Via
  10
-430.234
  20
188.728
  0
VERTEX
  8
MMIC_Via
  10
-428.971
  20
187.971
  0
VERTEX
  8
MMIC_Via
  10
-427.64
  20
187.342
  0
VERTEX
  8
MMIC_Via
  10
-426.254
  20
186.846
  0
VERTEX
  8
MMIC_Via
  10
-424.826
  20
186.488
  0
VERTEX
  8
MMIC_Via
  10
-423.37
  20
186.272
  0
VERTEX
  8
MMIC_Via
  10
-421.9
  20
186.2
  0
VERTEX
  8
MMIC_Via
  10
-391.9
  20
186.2
  0
VERTEX
  8
MMIC_Via
  10
-390.43
  20
186.272
  0
VERTEX
  8
MMIC_Via
  10
-388.974
  20
186.488
  0
VERTEX
  8
MMIC_Via
  10
-387.546
  20
186.846
  0
VERTEX
  8
MMIC_Via
  10
-386.16
  20
187.342
  0
VERTEX
  8
MMIC_Via
  10
-384.829
  20
187.971
  0
VERTEX
  8
MMIC_Via
  10
-383.566
  20
188.728
  0
VERTEX
  8
MMIC_Via
  10
-382.384
  20
189.605
  0
VERTEX
  8
MMIC_Via
  10
-381.293
  20
190.593
  0
VERTEX
  8
MMIC_Via
  10
-380.305
  20
191.684
  0
VERTEX
  8
MMIC_Via
  10
-379.428
  20
192.866
  0
VERTEX
  8
MMIC_Via
  10
-378.671
  20
194.129
  0
VERTEX
  8
MMIC_Via
  10
-378.042
  20
195.46
  0
VERTEX
  8
MMIC_Via
  10
-377.546
  20
196.846
  0
VERTEX
  8
MMIC_Via
  10
-377.188
  20
198.274
  0
VERTEX
  8
MMIC_Via
  10
-376.972
  20
199.73
  0
VERTEX
  8
MMIC_Via
  10
-376.9
  20
201.2
  0
VERTEX
  8
MMIC_Via
  10
-376.972
  20
202.67
  0
VERTEX
  8
MMIC_Via
  10
-377.188
  20
204.126
  0
VERTEX
  8
MMIC_Via
  10
-377.546
  20
205.554
  0
VERTEX
  8
MMIC_Via
  10
-378.042
  20
206.94
  0
VERTEX
  8
MMIC_Via
  10
-378.671
  20
208.271
  0
VERTEX
  8
MMIC_Via
  10
-379.428
  20
209.534
  0
VERTEX
  8
MMIC_Via
  10
-380.305
  20
210.716
  0
VERTEX
  8
MMIC_Via
  10
-381.293
  20
211.807
  0
VERTEX
  8
MMIC_Via
  10
-382.384
  20
212.795
  0
VERTEX
  8
MMIC_Via
  10
-383.566
  20
213.672
  0
VERTEX
  8
MMIC_Via
  10
-384.829
  20
214.429
  0
VERTEX
  8
MMIC_Via
  10
-386.16
  20
215.058
  0
VERTEX
  8
MMIC_Via
  10
-387.546
  20
215.554
  0
VERTEX
  8
MMIC_Via
  10
-388.974
  20
215.912
  0
VERTEX
  8
MMIC_Via
  10
-390.43
  20
216.128
  0
VERTEX
  8
MMIC_Via
  10
-391.9
  20
216.2
  0
VERTEX
  8
MMIC_Via
  10
-421.9
  20
216.2
  0
VERTEX
  8
MMIC_Via
  10
-423.37
  20
216.128
  0
VERTEX
  8
MMIC_Via
  10
-424.826
  20
215.912
  0
VERTEX
  8
MMIC_Via
  10
-426.254
  20
215.554
  0
VERTEX
  8
MMIC_Via
  10
-427.64
  20
215.058
  0
VERTEX
  8
MMIC_Via
  10
-428.971
  20
214.429
  0
VERTEX
  8
MMIC_Via
  10
-430.234
  20
213.672
  0
VERTEX
  8
MMIC_Via
  10
-431.416
  20
212.795
  0
VERTEX
  8
MMIC_Via
  10
-432.507
  20
211.807
  0
VERTEX
  8
MMIC_Via
  10
-433.495
  20
210.716
  0
VERTEX
  8
MMIC_Via
  10
-434.372
  20
209.534
  0
VERTEX
  8
MMIC_Via
  10
-435.129
  20
208.271
  0
VERTEX
  8
MMIC_Via
  10
-435.758
  20
206.94
  0
VERTEX
  8
MMIC_Via
  10
-436.254
  20
205.554
  0
VERTEX
  8
MMIC_Via
  10
-436.612
  20
204.126
  0
VERTEX
  8
MMIC_Via
  10
-436.828
  20
202.67
  0
SEQEND
  0
ENDSEC
  0
EOF
